ISO-10303-21;
HEADER;
FILE_DESCRIPTION(('STEP AP214'),'1');
FILE_NAME(' ','  ',('TraceParts'),('TraceParts S.A.'),'XStep 1.0',' ',' ');
FILE_SCHEMA(('automotive_design'));
ENDSEC;
DATA;
#1=MECHANICAL_DESIGN_GEOMETRIC_PRESENTATION_REPRESENTATION(' ',(#10,#11,#12,#13,#14,#15,#16,#17,#18,#19,#20,#21,#22,#23,#24,#25,#26,#27,#28,#29,#30,#31,#32,#33,#34,#35,#36,#37,#38,#39,#40,#41,#42,#43,#44,#45),#6);
#2=PRODUCT_DEFINITION_CONTEXT('',#46,'design');
#3=APPLICATION_PROTOCOL_DEFINITION('INTERNATIONAL STANDARD','automotive_design',1994,#46);
#4=PRODUCT_CATEGORY_RELATIONSHIP('NONE','NONE',#47,#48);
#5=SHAPE_DEFINITION_REPRESENTATION(#49,#50);
#6= (GEOMETRIC_REPRESENTATION_CONTEXT(3)GLOBAL_UNCERTAINTY_ASSIGNED_CONTEXT((#53))GLOBAL_UNIT_ASSIGNED_CONTEXT((#55,#56,#57))REPRESENTATION_CONTEXT('NONE','WORKSPACE'));
#10=STYLED_ITEM('',(#59),#60);
#11=STYLED_ITEM('',(#61),#62);
#12=STYLED_ITEM('',(#63),#64);
#13=STYLED_ITEM('',(#65),#66);
#14=STYLED_ITEM('',(#67),#68);
#15=STYLED_ITEM('',(#69),#70);
#16=STYLED_ITEM('',(#71),#72);
#17=STYLED_ITEM('',(#73),#74);
#18=STYLED_ITEM('',(#75),#76);
#19=STYLED_ITEM('',(#77),#78);
#20=STYLED_ITEM('',(#79),#80);
#21=STYLED_ITEM('',(#81),#82);
#22=STYLED_ITEM('',(#83),#84);
#23=STYLED_ITEM('',(#85),#86);
#24=STYLED_ITEM('',(#87),#88);
#25=STYLED_ITEM('',(#89),#90);
#26=STYLED_ITEM('',(#91),#92);
#27=STYLED_ITEM('',(#93),#94);
#28=STYLED_ITEM('',(#95),#96);
#29=STYLED_ITEM('',(#97),#98);
#30=STYLED_ITEM('',(#99),#100);
#31=STYLED_ITEM('',(#101),#102);
#32=STYLED_ITEM('',(#103),#104);
#33=STYLED_ITEM('',(#105),#106);
#34=STYLED_ITEM('',(#107),#108);
#35=STYLED_ITEM('',(#109),#110);
#36=STYLED_ITEM('',(#111),#112);
#37=STYLED_ITEM('',(#113),#114);
#38=STYLED_ITEM('',(#115),#116);
#39=STYLED_ITEM('',(#117),#118);
#40=STYLED_ITEM('',(#119),#120);
#41=STYLED_ITEM('',(#121),#122);
#42=STYLED_ITEM('',(#123),#124);
#43=STYLED_ITEM('',(#125),#126);
#44=STYLED_ITEM('',(#127),#128);
#45=STYLED_ITEM('',(#129),#130);
#46=APPLICATION_CONTEXT(' ');
#47=PRODUCT_CATEGORY('part','NONE');
#48=PRODUCT_RELATED_PRODUCT_CATEGORY('detail',' ',(#131));
#49=PRODUCT_DEFINITION_SHAPE('NONE','NONE',#132);
#50=ADVANCED_BREP_SHAPE_REPRESENTATION('1',(#114,#133),#6);
#53=UNCERTAINTY_MEASURE_WITH_UNIT(LENGTH_MEASURE(1.0E-006),#55,'','');
#55= (CONVERSION_BASED_UNIT('MILLIMETRE',#136)LENGTH_UNIT()NAMED_UNIT(#139));
#56= (NAMED_UNIT(#141)PLANE_ANGLE_UNIT()SI_UNIT($,.RADIAN.));
#57= (NAMED_UNIT(#141)SOLID_ANGLE_UNIT()SI_UNIT($,.STERADIAN.));
#59=PRESENTATION_STYLE_ASSIGNMENT((#147));
#60=EDGE_CURVE('',#92,#64,#148,.T.);
#61=PRESENTATION_STYLE_ASSIGNMENT((#149));
#62=ADVANCED_FACE('',(#150,#151),#152,.T.);
#63=PRESENTATION_STYLE_ASSIGNMENT((#153));
#64=VERTEX_POINT('',#154);
#65=PRESENTATION_STYLE_ASSIGNMENT((#155));
#66=ADVANCED_FACE('',(#156),#157,.F.);
#67=PRESENTATION_STYLE_ASSIGNMENT((#158));
#68=ADVANCED_FACE('',(#159),#160,.F.);
#69=PRESENTATION_STYLE_ASSIGNMENT((#161));
#70=EDGE_CURVE('',#94,#82,#162,.T.);
#71=PRESENTATION_STYLE_ASSIGNMENT((#163));
#72=ADVANCED_FACE('',(#164),#165,.T.);
#73=PRESENTATION_STYLE_ASSIGNMENT((#166));
#74=EDGE_CURVE('',#100,#108,#167,.T.);
#75=PRESENTATION_STYLE_ASSIGNMENT((#168));
#76=VERTEX_POINT('',#169);
#77=PRESENTATION_STYLE_ASSIGNMENT((#170));
#78=EDGE_CURVE('',#86,#100,#171,.T.);
#79=PRESENTATION_STYLE_ASSIGNMENT((#172));
#80=EDGE_CURVE('',#128,#86,#173,.T.);
#81=PRESENTATION_STYLE_ASSIGNMENT((#174));
#82=VERTEX_POINT('',#175);
#83=PRESENTATION_STYLE_ASSIGNMENT((#176));
#84=EDGE_CURVE('',#108,#100,#177,.T.);
#85=PRESENTATION_STYLE_ASSIGNMENT((#178));
#86=VERTEX_POINT('',#179);
#87=PRESENTATION_STYLE_ASSIGNMENT((#180));
#88=VERTEX_POINT('',#181);
#89=PRESENTATION_STYLE_ASSIGNMENT((#182));
#90=ADVANCED_FACE('',(#183),#184,.F.);
#91=PRESENTATION_STYLE_ASSIGNMENT((#185));
#92=VERTEX_POINT('',#186);
#93=PRESENTATION_STYLE_ASSIGNMENT((#187));
#94=VERTEX_POINT('',#188);
#95=PRESENTATION_STYLE_ASSIGNMENT((#189));
#96=ADVANCED_FACE('',(#190),#191,.T.);
#97=PRESENTATION_STYLE_ASSIGNMENT((#192));
#98=EDGE_CURVE('',#108,#128,#193,.T.);
#99=PRESENTATION_STYLE_ASSIGNMENT((#194));
#100=VERTEX_POINT('',#195);
#101=PRESENTATION_STYLE_ASSIGNMENT((#196));
#102=EDGE_CURVE('',#86,#94,#197,.T.);
#103=PRESENTATION_STYLE_ASSIGNMENT((#198));
#104=EDGE_CURVE('',#76,#82,#199,.T.);
#105=PRESENTATION_STYLE_ASSIGNMENT((#200));
#106=EDGE_CURVE('',#82,#94,#201,.T.);
#107=PRESENTATION_STYLE_ASSIGNMENT((#202));
#108=VERTEX_POINT('',#203);
#109=PRESENTATION_STYLE_ASSIGNMENT((#204));
#110=EDGE_CURVE('',#94,#76,#205,.T.);
#111=PRESENTATION_STYLE_ASSIGNMENT((#206));
#112=EDGE_CURVE('',#88,#64,#207,.T.);
#113=PRESENTATION_STYLE_ASSIGNMENT((#208));
#114=MANIFOLD_SOLID_BREP('1',#209);
#115=PRESENTATION_STYLE_ASSIGNMENT((#210));
#116=ADVANCED_FACE('',(#211),#212,.F.);
#117=PRESENTATION_STYLE_ASSIGNMENT((#213));
#118=EDGE_CURVE('',#64,#92,#214,.T.);
#119=PRESENTATION_STYLE_ASSIGNMENT((#215));
#120=ADVANCED_FACE('',(#216),#217,.F.);
#121=PRESENTATION_STYLE_ASSIGNMENT((#218));
#122=EDGE_CURVE('',#82,#128,#219,.T.);
#123=PRESENTATION_STYLE_ASSIGNMENT((#220));
#124=EDGE_CURVE('',#92,#88,#221,.T.);
#125=PRESENTATION_STYLE_ASSIGNMENT((#222));
#126=ADVANCED_FACE('',(#223),#224,.F.);
#127=PRESENTATION_STYLE_ASSIGNMENT((#225));
#128=VERTEX_POINT('',#226);
#129=PRESENTATION_STYLE_ASSIGNMENT((#227));
#130=EDGE_CURVE('',#86,#128,#228,.T.);
#131=PRODUCT('1','1','PART-1-DESC',(#229));
#132=PRODUCT_DEFINITION('NONE','NONE',#230,#2);
#133=AXIS2_PLACEMENT_3D('',#231,#232,#233);
#136=LENGTH_MEASURE_WITH_UNIT(LENGTH_MEASURE(1.0),#234);
#139=DIMENSIONAL_EXPONENTS(1.0,0.0,0.0,0.0,0.0,0.0,0.0);
#141=DIMENSIONAL_EXPONENTS(0.0,0.0,0.0,0.0,0.0,0.0,0.0);
#147=CURVE_STYLE('',#235,POSITIVE_LENGTH_MEASURE(1.0E-006),#236);
#148=CIRCLE('',#237,13.5646599662505);
#149=SURFACE_STYLE_USAGE(.BOTH.,#238);
#150=FACE_BOUND('',#239,.T.);
#151=FACE_OUTER_BOUND('',#240,.T.);
#152=PLANE('',#241);
#153=POINT_STYLE(' ',#242,POSITIVE_LENGTH_MEASURE(1.0E-006),#243);
#154=CARTESIAN_POINT('',(-13.5646599662506,2.09668650637858E-014,-4.2632564145606E-014));
#155=SURFACE_STYLE_USAGE(.BOTH.,#244);
#156=FACE_OUTER_BOUND('',#245,.T.);
#157=CONICAL_SURFACE('',#246,2.92,1.04719755119659);
#158=SURFACE_STYLE_USAGE(.BOTH.,#247);
#159=FACE_OUTER_BOUND('',#248,.T.);
#160=CONICAL_SURFACE('',#249,5.92,0.00727259905240355);
#161=CURVE_STYLE('',#250,POSITIVE_LENGTH_MEASURE(1.0E-006),#251);
#162=CIRCLE('',#252,5.84);
#163=SURFACE_STYLE_USAGE(.BOTH.,#253);
#164=FACE_OUTER_BOUND('',#254,.T.);
#165=SPHERICAL_SURFACE('',#255,25.0);
#166=CURVE_STYLE('',#256,POSITIVE_LENGTH_MEASURE(1.0E-006),#257);
#167=CIRCLE('',#258,5.99999999999997);
#168=POINT_STYLE(' ',#259,POSITIVE_LENGTH_MEASURE(1.0E-006),#260);
#169=CARTESIAN_POINT('',(-5.6843418860808E-014,2.20541682079052E-014,30.3717255720674));
#170=CURVE_STYLE('',#261,POSITIVE_LENGTH_MEASURE(1.0E-006),#262);
#171=LINE('',#263,#264);
#172=CURVE_STYLE('',#265,POSITIVE_LENGTH_MEASURE(1.0E-006),#266);
#173=CIRCLE('',#267,5.84);
#174=POINT_STYLE(' ',#268,POSITIVE_LENGTH_MEASURE(1.0E-006),#269);
#175=CARTESIAN_POINT('',(5.83999999999995,2.22606200358502E-014,27.0));
#176=CURVE_STYLE('',#270,POSITIVE_LENGTH_MEASURE(1.0E-006),#271);
#177=CIRCLE('',#272,5.99999999999997);
#178=POINT_STYLE(' ',#273,POSITIVE_LENGTH_MEASURE(1.0E-006),#274);
#179=CARTESIAN_POINT('',(-5.84000000000006,-3.98282519568391E-013,21.9999999999999));
#180=POINT_STYLE(' ',#275,POSITIVE_LENGTH_MEASURE(1.0E-006),#276);
#181=CARTESIAN_POINT('',(-5.6843418860808E-014,2.10972439997189E-014,45.9999999999999));
#182=SURFACE_STYLE_USAGE(.BOTH.,#277);
#183=FACE_OUTER_BOUND('',#278,.T.);
#184=CONICAL_SURFACE('',#279,5.92,0.00727259905240355);
#185=POINT_STYLE(' ',#280,POSITIVE_LENGTH_MEASURE(1.0E-006),#281);
#186=CARTESIAN_POINT('',(13.5646599662505,2.39138386135104E-014,-4.2632564145606E-014));
#187=POINT_STYLE(' ',#282,POSITIVE_LENGTH_MEASURE(1.0E-006),#283);
#188=CARTESIAN_POINT('',(-5.84000000000006,2.03815091298934E-014,27.0));
#189=SURFACE_STYLE_USAGE(.BOTH.,#284);
#190=FACE_OUTER_BOUND('',#285,.T.);
#191=SPHERICAL_SURFACE('',#286,25.0);
#192=CURVE_STYLE('',#287,POSITIVE_LENGTH_MEASURE(1.0E-006),#288);
#193=LINE('',#289,#290);
#194=POINT_STYLE(' ',#291,POSITIVE_LENGTH_MEASURE(1.0E-006),#292);
#195=CARTESIAN_POINT('',(-6.00000000000003,-4.09719941901313E-013,-5.6843418860808E-014));
#196=CURVE_STYLE('',#293,POSITIVE_LENGTH_MEASURE(1.0E-006),#294);
#197=LINE('',#295,#296);
#198=CURVE_STYLE('',#297,POSITIVE_LENGTH_MEASURE(1.0E-006),#298);
#199=LINE('',#299,#300);
#200=CURVE_STYLE('',#301,POSITIVE_LENGTH_MEASURE(1.0E-006),#302);
#201=CIRCLE('',#303,5.84);
#202=POINT_STYLE(' ',#304,POSITIVE_LENGTH_MEASURE(1.0E-006),#305);
#203=CARTESIAN_POINT('',(5.99999999999991,2.39138386135104E-014,-5.6843418860808E-014));
#204=CURVE_STYLE('',#306,POSITIVE_LENGTH_MEASURE(1.0E-006),#307);
#205=LINE('',#308,#309);
#206=CURVE_STYLE('',#310,POSITIVE_LENGTH_MEASURE(1.0E-006),#311);
#207=CIRCLE('',#312,25.0);
#208=SURFACE_STYLE_USAGE(.BOTH.,#313);
#209=CLOSED_SHELL('',(#126,#116,#96,#90,#68,#72,#62,#120,#66));
#210=SURFACE_STYLE_USAGE(.BOTH.,#314);
#211=FACE_OUTER_BOUND('',#315,.T.);
#212=CYLINDRICAL_SURFACE('',#316,5.84);
#213=CURVE_STYLE('',#317,POSITIVE_LENGTH_MEASURE(1.0E-006),#318);
#214=CIRCLE('',#319,13.5646599662505);
#215=SURFACE_STYLE_USAGE(.BOTH.,#320);
#216=FACE_OUTER_BOUND('',#321,.T.);
#217=CYLINDRICAL_SURFACE('',#322,5.84);
#218=CURVE_STYLE('',#323,POSITIVE_LENGTH_MEASURE(1.0E-006),#324);
#219=LINE('',#325,#326);
#220=CURVE_STYLE('',#327,POSITIVE_LENGTH_MEASURE(1.0E-006),#328);
#221=CIRCLE('',#329,25.0);
#222=SURFACE_STYLE_USAGE(.BOTH.,#330);
#223=FACE_OUTER_BOUND('',#331,.T.);
#224=CONICAL_SURFACE('',#332,2.92,1.04719755119659);
#225=POINT_STYLE(' ',#333,POSITIVE_LENGTH_MEASURE(1.0E-006),#334);
#226=CARTESIAN_POINT('',(5.83999999999995,1.96959989997469E-014,21.9999999999999));
#227=CURVE_STYLE('',#335,POSITIVE_LENGTH_MEASURE(1.0E-006),#336);
#228=CIRCLE('',#337,5.84);
#229=PRODUCT_CONTEXT('',#46,'mechanical');
#230=PRODUCT_DEFINITION_FORMATION_WITH_SPECIFIED_SOURCE(' ','NONE',#131,.NOT_KNOWN.);
#231=CARTESIAN_POINT('',(0.0,0.0,0.0));
#232=DIRECTION('',(0.0,0.0,1.0));
#233=DIRECTION('',(1.0,0.0,0.0));
#234= (NAMED_UNIT(#139)LENGTH_UNIT()SI_UNIT(.MILLI.,.METRE.));
#235=DRAUGHTING_PRE_DEFINED_CURVE_FONT('continuous');
#236=COLOUR_RGB('',0.509803950786591,0.509803950786591,0.588235318660736);
#237=AXIS2_PLACEMENT_3D('',#339,#340,#341);
#238=SURFACE_SIDE_STYLE('',(#342));
#239=EDGE_LOOP('',(#343,#344));
#240=EDGE_LOOP('',(#345,#346));
#241=AXIS2_PLACEMENT_3D('',#347,#348,#349);
#242=PRE_DEFINED_MARKER('');
#243=COLOUR_RGB('',0.509803950786591,0.509803950786591,0.588235318660736);
#244=SURFACE_SIDE_STYLE('',(#350));
#245=EDGE_LOOP('',(#351,#352,#353));
#246=AXIS2_PLACEMENT_3D('',#354,#355,#356);
#247=SURFACE_SIDE_STYLE('',(#357));
#248=EDGE_LOOP('',(#358,#359,#360,#361));
#249=AXIS2_PLACEMENT_3D('',#362,#363,#364);
#250=DRAUGHTING_PRE_DEFINED_CURVE_FONT('continuous');
#251=COLOUR_RGB('',0.509803950786591,0.509803950786591,0.588235318660736);
#252=AXIS2_PLACEMENT_3D('',#365,#366,#367);
#253=SURFACE_SIDE_STYLE('',(#368));
#254=EDGE_LOOP('',(#369,#370,#371));
#255=AXIS2_PLACEMENT_3D('',#372,#373,#374);
#256=DRAUGHTING_PRE_DEFINED_CURVE_FONT('continuous');
#257=COLOUR_RGB('',0.509803950786591,0.509803950786591,0.588235318660736);
#258=AXIS2_PLACEMENT_3D('',#375,#376,#377);
#259=PRE_DEFINED_MARKER('');
#260=COLOUR_RGB('',0.509803950786591,0.509803950786591,0.588235318660736);
#261=DRAUGHTING_PRE_DEFINED_CURVE_FONT('continuous');
#262=COLOUR_RGB('',0.509803950786591,0.509803950786591,0.588235318660736);
#263=CARTESIAN_POINT('',(-5.92000000000006,-4.04001230734853E-013,10.9999999999999));
#264=VECTOR('',#378,1.0);
#265=DRAUGHTING_PRE_DEFINED_CURVE_FONT('continuous');
#266=COLOUR_RGB('',0.509803950786591,0.509803950786591,0.588235318660736);
#267=AXIS2_PLACEMENT_3D('',#379,#380,#381);
#268=PRE_DEFINED_MARKER('');
#269=COLOUR_RGB('',0.509803950786591,0.509803950786591,0.588235318660736);
#270=DRAUGHTING_PRE_DEFINED_CURVE_FONT('continuous');
#271=COLOUR_RGB('',0.509803950786591,0.509803950786591,0.588235318660736);
#272=AXIS2_PLACEMENT_3D('',#382,#383,#384);
#273=PRE_DEFINED_MARKER('');
#274=COLOUR_RGB('',0.509803950786591,0.509803950786591,0.588235318660736);
#275=PRE_DEFINED_MARKER('');
#276=COLOUR_RGB('',0.509803950786591,0.509803950786591,0.588235318660736);
#277=SURFACE_SIDE_STYLE('',(#385));
#278=EDGE_LOOP('',(#386,#387,#388,#389));
#279=AXIS2_PLACEMENT_3D('',#390,#391,#392);
#280=PRE_DEFINED_MARKER('');
#281=COLOUR_RGB('',0.509803950786591,0.509803950786591,0.588235318660736);
#282=PRE_DEFINED_MARKER('');
#283=COLOUR_RGB('',0.509803950786591,0.509803950786591,0.588235318660736);
#284=SURFACE_SIDE_STYLE('',(#393));
#285=EDGE_LOOP('',(#394,#395,#396));
#286=AXIS2_PLACEMENT_3D('',#397,#398,#399);
#287=DRAUGHTING_PRE_DEFINED_CURVE_FONT('continuous');
#288=COLOUR_RGB('',0.509803950786591,0.509803950786591,0.588235318660736);
#289=CARTESIAN_POINT('',(5.91999999999994,4.42368021901545E-013,10.9999999999999));
#290=VECTOR('',#400,1.0);
#291=PRE_DEFINED_MARKER('');
#292=COLOUR_RGB('',0.509803950786591,0.509803950786591,0.588235318660736);
#293=DRAUGHTING_PRE_DEFINED_CURVE_FONT('continuous');
#294=COLOUR_RGB('',0.509803950786591,0.509803950786591,0.588235318660736);
#295=CARTESIAN_POINT('',(-5.84000000000006,2.03815091298934E-014,24.4999999999999));
#296=VECTOR('',#401,1.0);
#297=DRAUGHTING_PRE_DEFINED_CURVE_FONT('continuous');
#298=COLOUR_RGB('',0.509803950786591,0.509803950786591,0.588235318660736);
#299=CARTESIAN_POINT('',(2.91999999999994,2.14551114346316E-014,28.6858627860337));
#300=VECTOR('',#402,1.0);
#301=DRAUGHTING_PRE_DEFINED_CURVE_FONT('continuous');
#302=COLOUR_RGB('',0.509803950786591,0.509803950786591,0.588235318660736);
#303=AXIS2_PLACEMENT_3D('',#403,#404,#405);
#304=PRE_DEFINED_MARKER('');
#305=COLOUR_RGB('',0.509803950786591,0.509803950786591,0.588235318660736);
#306=DRAUGHTING_PRE_DEFINED_CURVE_FONT('continuous');
#307=COLOUR_RGB('',0.509803950786591,0.509803950786591,0.588235318660736);
#308=CARTESIAN_POINT('',(-2.92000000000006,2.07393765648062E-014,28.6858627860337));
#309=VECTOR('',#406,1.0);
#310=DRAUGHTING_PRE_DEFINED_CURVE_FONT('continuous');
#311=COLOUR_RGB('',0.509803950786591,0.509803950786591,0.588235318660736);
#312=AXIS2_PLACEMENT_3D('',#407,#408,#409);
#313=SURFACE_SIDE_STYLE('',(#410));
#314=SURFACE_SIDE_STYLE('',(#411));
#315=EDGE_LOOP('',(#412,#413,#414,#415));
#316=AXIS2_PLACEMENT_3D('',#416,#417,#418);
#317=DRAUGHTING_PRE_DEFINED_CURVE_FONT('continuous');
#318=COLOUR_RGB('',0.509803950786591,0.509803950786591,0.588235318660736);
#319=AXIS2_PLACEMENT_3D('',#419,#420,#421);
#320=SURFACE_SIDE_STYLE('',(#422));
#321=EDGE_LOOP('',(#423,#424,#425,#426));
#322=AXIS2_PLACEMENT_3D('',#427,#428,#429);
#323=DRAUGHTING_PRE_DEFINED_CURVE_FONT('continuous');
#324=COLOUR_RGB('',0.509803950786591,0.509803950786591,0.588235318660736);
#325=CARTESIAN_POINT('',(5.83999999999995,2.18129788695443E-014,24.4999999999999));
#326=VECTOR('',#430,1.0);
#327=DRAUGHTING_PRE_DEFINED_CURVE_FONT('continuous');
#328=COLOUR_RGB('',0.509803950786591,0.509803950786591,0.588235318660736);
#329=AXIS2_PLACEMENT_3D('',#431,#432,#433);
#330=SURFACE_SIDE_STYLE('',(#434));
#331=EDGE_LOOP('',(#435,#436,#437));
#332=AXIS2_PLACEMENT_3D('',#438,#439,#440);
#333=PRE_DEFINED_MARKER('');
#334=COLOUR_RGB('',0.509803950786591,0.509803950786591,0.588235318660736);
#335=DRAUGHTING_PRE_DEFINED_CURVE_FONT('continuous');
#336=COLOUR_RGB('',0.509803950786591,0.509803950786591,0.588235318660736);
#337=AXIS2_PLACEMENT_3D('',#441,#442,#443);
#339=CARTESIAN_POINT('',(-5.6843418860808E-014,2.10972439997189E-014,-4.2632564145606E-014));
#340=DIRECTION('',(0.0,0.0,-1.0));
#341=DIRECTION('',(1.0,9.67053412983025E-020,0.0));
#342=SURFACE_STYLE_FILL_AREA(#444);
#343=ORIENTED_EDGE('',*,*,#84,.F.);
#344=ORIENTED_EDGE('',*,*,#74,.F.);
#345=ORIENTED_EDGE('',*,*,#60,.T.);
#346=ORIENTED_EDGE('',*,*,#118,.T.);
#347=CARTESIAN_POINT('',(9.78232998312519,2.39138386135104E-014,-4.9737991503207E-014));
#348=DIRECTION('',(0.0,0.0,-1.0));
#349=DIRECTION('',(-1.0,0.0,0.0));
#350=SURFACE_STYLE_FILL_AREA(#445);
#351=ORIENTED_EDGE('',*,*,#110,.F.);
#352=ORIENTED_EDGE('',*,*,#70,.T.);
#353=ORIENTED_EDGE('',*,*,#104,.F.);
#354=CARTESIAN_POINT('',(-5.6843418860808E-014,2.10972439997189E-014,28.6858627860337));
#355=DIRECTION('',(0.0,-0.0,-1.0));
#356=DIRECTION('',(1.0,9.67053412983025E-020,0.0));
#357=SURFACE_STYLE_FILL_AREA(#446);
#358=ORIENTED_EDGE('',*,*,#98,.T.);
#359=ORIENTED_EDGE('',*,*,#130,.F.);
#360=ORIENTED_EDGE('',*,*,#78,.T.);
#361=ORIENTED_EDGE('',*,*,#74,.T.);
#362=CARTESIAN_POINT('',(-5.6843418860808E-014,1.91833955833463E-014,10.9999999999999));
#363=DIRECTION('',(0.0,-0.0,-1.0));
#364=DIRECTION('',(1.0,7.13614289453946E-014,0.0));
#365=CARTESIAN_POINT('',(-5.6843418860808E-014,2.10972439997189E-014,27.0));
#366=DIRECTION('',(0.0,0.0,-1.0));
#367=DIRECTION('',(1.0,9.67053412983025E-020,0.0));
#368=SURFACE_STYLE_FILL_AREA(#447);
#369=ORIENTED_EDGE('',*,*,#112,.T.);
#370=ORIENTED_EDGE('',*,*,#60,.F.);
#371=ORIENTED_EDGE('',*,*,#124,.T.);
#372=CARTESIAN_POINT('',(-5.52934162812221E-014,2.26280019419969E-014,21.0));
#373=DIRECTION('',(0.0,0.0,-1.0));
#374=DIRECTION('',(-1.0,0.0,0.0));
#375=CARTESIAN_POINT('',(-5.6843418860808E-014,2.10972439997189E-014,-5.6843418860808E-014));
#376=DIRECTION('',(0.0,0.0,-1.0));
#377=DIRECTION('',(1.0,9.67053412983025E-020,0.0));
#378=DIRECTION('',(-0.00727253494376764,-5.19869084892627E-016,-0.999973554768071));
#379=CARTESIAN_POINT('',(-5.6843418860808E-014,2.10972439997189E-014,21.9999999999999));
#380=DIRECTION('',(0.0,0.0,-1.0));
#381=DIRECTION('',(1.0,9.67053412983025E-020,0.0));
#382=CARTESIAN_POINT('',(-5.6843418860808E-014,2.10972439997189E-014,-5.6843418860808E-014));
#383=DIRECTION('',(0.0,0.0,-1.0));
#384=DIRECTION('',(1.0,9.67053412983025E-020,0.0));
#385=SURFACE_STYLE_FILL_AREA(#448);
#386=ORIENTED_EDGE('',*,*,#98,.F.);
#387=ORIENTED_EDGE('',*,*,#84,.T.);
#388=ORIENTED_EDGE('',*,*,#78,.F.);
#389=ORIENTED_EDGE('',*,*,#80,.F.);
#390=CARTESIAN_POINT('',(-5.6843418860808E-014,1.91833955833463E-014,10.9999999999999));
#391=DIRECTION('',(0.0,-0.0,-1.0));
#392=DIRECTION('',(1.0,7.13614289453946E-014,0.0));
#393=SURFACE_STYLE_FILL_AREA(#449);
#394=ORIENTED_EDGE('',*,*,#112,.F.);
#395=ORIENTED_EDGE('',*,*,#124,.F.);
#396=ORIENTED_EDGE('',*,*,#118,.F.);
#397=CARTESIAN_POINT('',(-5.52934162812221E-014,2.26280019419969E-014,21.0));
#398=DIRECTION('',(0.0,0.0,-1.0));
#399=DIRECTION('',(-1.0,0.0,0.0));
#400=DIRECTION('',(-0.00727253494376764,-5.19869084892627E-016,0.999973554768071));
#401=DIRECTION('',(-0.0,-0.0,1.0));
#402=DIRECTION('',(0.866025403784435,1.06137770486847E-016,-0.500000000000007));
#403=CARTESIAN_POINT('',(-5.6843418860808E-014,2.10972439997189E-014,27.0));
#404=DIRECTION('',(0.0,0.0,-1.0));
#405=DIRECTION('',(1.0,9.67053412983025E-020,0.0));
#406=DIRECTION('',(0.866025403784435,1.06137770486847E-016,0.500000000000007));
#407=CARTESIAN_POINT('',(-5.52934162812221E-014,2.26280019419969E-014,21.0));
#408=DIRECTION('',(1.22460635382238E-016,-1.0,0.0));
#409=DIRECTION('',(0.0,0.0,1.0));
#410=SURFACE_STYLE_FILL_AREA(#450);
#411=SURFACE_STYLE_FILL_AREA(#451);
#412=ORIENTED_EDGE('',*,*,#122,.F.);
#413=ORIENTED_EDGE('',*,*,#70,.F.);
#414=ORIENTED_EDGE('',*,*,#102,.F.);
#415=ORIENTED_EDGE('',*,*,#130,.T.);
#416=CARTESIAN_POINT('',(-5.6843418860808E-014,2.10972439997189E-014,13.5799999999999));
#417=DIRECTION('',(-0.0,-0.0,1.0));
#418=DIRECTION('',(1.0,9.67053412983025E-020,0.0));
#419=CARTESIAN_POINT('',(-5.6843418860808E-014,2.10972439997189E-014,-4.2632564145606E-014));
#420=DIRECTION('',(0.0,0.0,-1.0));
#421=DIRECTION('',(1.0,9.67053412983025E-020,0.0));
#422=SURFACE_STYLE_FILL_AREA(#452);
#423=ORIENTED_EDGE('',*,*,#122,.T.);
#424=ORIENTED_EDGE('',*,*,#80,.T.);
#425=ORIENTED_EDGE('',*,*,#102,.T.);
#426=ORIENTED_EDGE('',*,*,#106,.F.);
#427=CARTESIAN_POINT('',(-5.6843418860808E-014,2.10972439997189E-014,13.5799999999999));
#428=DIRECTION('',(-0.0,-0.0,1.0));
#429=DIRECTION('',(1.0,9.67053412983025E-020,0.0));
#430=DIRECTION('',(-0.0,-0.0,-1.0));
#431=CARTESIAN_POINT('',(-5.52934162812221E-014,2.26280019419969E-014,21.0));
#432=DIRECTION('',(1.22460635382238E-016,-1.0,0.0));
#433=DIRECTION('',(0.0,0.0,1.0));
#434=SURFACE_STYLE_FILL_AREA(#453);
#435=ORIENTED_EDGE('',*,*,#110,.T.);
#436=ORIENTED_EDGE('',*,*,#104,.T.);
#437=ORIENTED_EDGE('',*,*,#106,.T.);
#438=CARTESIAN_POINT('',(-5.6843418860808E-014,2.10972439997189E-014,28.6858627860337));
#439=DIRECTION('',(0.0,-0.0,-1.0));
#440=DIRECTION('',(1.0,9.67053412983025E-020,0.0));
#441=CARTESIAN_POINT('',(-5.6843418860808E-014,2.10972439997189E-014,21.9999999999999));
#442=DIRECTION('',(0.0,0.0,-1.0));
#443=DIRECTION('',(1.0,9.67053412983025E-020,0.0));
#444=FILL_AREA_STYLE('',(#454));
#445=FILL_AREA_STYLE('',(#455));
#446=FILL_AREA_STYLE('',(#456));
#447=FILL_AREA_STYLE('',(#457));
#448=FILL_AREA_STYLE('',(#458));
#449=FILL_AREA_STYLE('',(#459));
#450=FILL_AREA_STYLE('',(#460));
#451=FILL_AREA_STYLE('',(#461));
#452=FILL_AREA_STYLE('',(#462));
#453=FILL_AREA_STYLE('',(#463));
#454=FILL_AREA_STYLE_COLOUR('',#464);
#455=FILL_AREA_STYLE_COLOUR('',#465);
#456=FILL_AREA_STYLE_COLOUR('',#466);
#457=FILL_AREA_STYLE_COLOUR('',#467);
#458=FILL_AREA_STYLE_COLOUR('',#468);
#459=FILL_AREA_STYLE_COLOUR('',#469);
#460=FILL_AREA_STYLE_COLOUR('',#470);
#461=FILL_AREA_STYLE_COLOUR('',#471);
#462=FILL_AREA_STYLE_COLOUR('',#472);
#463=FILL_AREA_STYLE_COLOUR('',#473);
#464=COLOUR_RGB('',0.509803950786591,0.509803950786591,0.588235318660736);
#465=COLOUR_RGB('',0.509803950786591,0.509803950786591,0.588235318660736);
#466=COLOUR_RGB('',0.509803950786591,0.509803950786591,0.588235318660736);
#467=COLOUR_RGB('',0.509803950786591,0.509803950786591,0.588235318660736);
#468=COLOUR_RGB('',0.509803950786591,0.509803950786591,0.588235318660736);
#469=COLOUR_RGB('',0.509803950786591,0.509803950786591,0.588235318660736);
#470=COLOUR_RGB('',0.509803950786591,0.509803950786591,0.588235318660736);
#471=COLOUR_RGB('',0.509803950786591,0.509803950786591,0.588235318660736);
#472=COLOUR_RGB('',0.509803950786591,0.509803950786591,0.588235318660736);
#473=COLOUR_RGB('',0.509803950786591,0.509803950786591,0.588235318660736);
ENDSEC;
END-ISO-10303-21;
