ISO-10303-21;
HEADER;
FILE_DESCRIPTION(('STEP AP214'),'1');
FILE_NAME(' ','  ',('TraceParts'),('TraceParts S.A.'),'XStep 1.0',' ',' ');
FILE_SCHEMA(('automotive_design'));
ENDSEC;
DATA;
#1=MECHANICAL_DESIGN_GEOMETRIC_PRESENTATION_REPRESENTATION(' ',(#10,#11,#12,#13,#14,#15,#16,#17,#18,#19,#20,#21,#22,#23,#24,#25,#26,#27,#28,#29,#30,#31,#32,#33,#34,#35,#36,#37,#38,#39,#40,#41,#42,#43,#44),#6);
#2=PRODUCT_DEFINITION_CONTEXT('',#45,'design');
#3=APPLICATION_PROTOCOL_DEFINITION('INTERNATIONAL STANDARD','automotive_design',1994,#45);
#4=PRODUCT_CATEGORY_RELATIONSHIP('NONE','NONE',#46,#47);
#5=SHAPE_DEFINITION_REPRESENTATION(#48,#49);
#6= (GEOMETRIC_REPRESENTATION_CONTEXT(3)GLOBAL_UNCERTAINTY_ASSIGNED_CONTEXT((#52))GLOBAL_UNIT_ASSIGNED_CONTEXT((#54,#55,#56))REPRESENTATION_CONTEXT('NONE','WORKSPACE'));
#10=STYLED_ITEM('',(#58),#59);
#11=STYLED_ITEM('',(#60),#61);
#12=STYLED_ITEM('',(#62),#63);
#13=STYLED_ITEM('',(#64),#65);
#14=STYLED_ITEM('',(#66),#67);
#15=STYLED_ITEM('',(#68),#69);
#16=STYLED_ITEM('',(#70),#71);
#17=STYLED_ITEM('',(#72),#73);
#18=STYLED_ITEM('',(#74),#75);
#19=STYLED_ITEM('',(#76),#77);
#20=STYLED_ITEM('',(#78),#79);
#21=STYLED_ITEM('',(#80),#81);
#22=STYLED_ITEM('',(#82),#83);
#23=STYLED_ITEM('',(#84),#85);
#24=STYLED_ITEM('',(#86),#87);
#25=STYLED_ITEM('',(#88),#89);
#26=STYLED_ITEM('',(#90),#91);
#27=STYLED_ITEM('',(#92),#93);
#28=STYLED_ITEM('',(#94),#95);
#29=STYLED_ITEM('',(#96),#97);
#30=STYLED_ITEM('',(#98),#99);
#31=STYLED_ITEM('',(#100),#101);
#32=STYLED_ITEM('',(#102),#103);
#33=STYLED_ITEM('',(#104),#105);
#34=STYLED_ITEM('',(#106),#107);
#35=STYLED_ITEM('',(#108),#109);
#36=STYLED_ITEM('',(#110),#111);
#37=STYLED_ITEM('',(#112),#113);
#38=STYLED_ITEM('',(#114),#115);
#39=STYLED_ITEM('',(#116),#117);
#40=STYLED_ITEM('',(#118),#119);
#41=STYLED_ITEM('',(#120),#121);
#42=STYLED_ITEM('',(#122),#123);
#43=STYLED_ITEM('',(#124),#125);
#44=STYLED_ITEM('',(#126),#127);
#45=APPLICATION_CONTEXT(' ');
#46=PRODUCT_CATEGORY('part','NONE');
#47=PRODUCT_RELATED_PRODUCT_CATEGORY('detail',' ',(#128));
#48=PRODUCT_DEFINITION_SHAPE('NONE','NONE',#129);
#49=ADVANCED_BREP_SHAPE_REPRESENTATION('1',(#61,#130),#6);
#52=UNCERTAINTY_MEASURE_WITH_UNIT(LENGTH_MEASURE(1.0E-006),#54,'','');
#54= (CONVERSION_BASED_UNIT('MILLIMETRE',#133)LENGTH_UNIT()NAMED_UNIT(#136));
#55= (NAMED_UNIT(#138)PLANE_ANGLE_UNIT()SI_UNIT($,.RADIAN.));
#56= (NAMED_UNIT(#138)SOLID_ANGLE_UNIT()SI_UNIT($,.STERADIAN.));
#58=PRESENTATION_STYLE_ASSIGNMENT((#144));
#59=VERTEX_POINT('',#145);
#60=PRESENTATION_STYLE_ASSIGNMENT((#146));
#61=MANIFOLD_SOLID_BREP('1',#147);
#62=PRESENTATION_STYLE_ASSIGNMENT((#148));
#63=EDGE_CURVE('',#67,#87,#149,.T.);
#64=PRESENTATION_STYLE_ASSIGNMENT((#150));
#65=EDGE_CURVE('',#81,#97,#151,.T.);
#66=PRESENTATION_STYLE_ASSIGNMENT((#152));
#67=VERTEX_POINT('',#153);
#68=PRESENTATION_STYLE_ASSIGNMENT((#154));
#69=EDGE_CURVE('',#107,#91,#155,.T.);
#70=PRESENTATION_STYLE_ASSIGNMENT((#156));
#71=EDGE_CURVE('',#91,#59,#157,.T.);
#72=PRESENTATION_STYLE_ASSIGNMENT((#158));
#73=ADVANCED_FACE('',(#159),#160,.T.);
#74=PRESENTATION_STYLE_ASSIGNMENT((#161));
#75=EDGE_CURVE('',#91,#107,#162,.T.);
#76=PRESENTATION_STYLE_ASSIGNMENT((#163));
#77=ADVANCED_FACE('',(#164),#165,.F.);
#78=PRESENTATION_STYLE_ASSIGNMENT((#166));
#79=ADVANCED_FACE('',(#167),#168,.T.);
#80=PRESENTATION_STYLE_ASSIGNMENT((#169));
#81=VERTEX_POINT('',#170);
#82=PRESENTATION_STYLE_ASSIGNMENT((#171));
#83=EDGE_CURVE('',#59,#95,#172,.T.);
#84=PRESENTATION_STYLE_ASSIGNMENT((#173));
#85=EDGE_CURVE('',#127,#111,#174,.T.);
#86=PRESENTATION_STYLE_ASSIGNMENT((#175));
#87=VERTEX_POINT('',#176);
#88=PRESENTATION_STYLE_ASSIGNMENT((#177));
#89=ADVANCED_FACE('',(#178),#179,.F.);
#90=PRESENTATION_STYLE_ASSIGNMENT((#180));
#91=VERTEX_POINT('',#181);
#92=PRESENTATION_STYLE_ASSIGNMENT((#182));
#93=EDGE_CURVE('',#97,#81,#183,.T.);
#94=PRESENTATION_STYLE_ASSIGNMENT((#184));
#95=VERTEX_POINT('',#185);
#96=PRESENTATION_STYLE_ASSIGNMENT((#186));
#97=VERTEX_POINT('',#187);
#98=PRESENTATION_STYLE_ASSIGNMENT((#188));
#99=EDGE_CURVE('',#81,#111,#189,.T.);
#100=PRESENTATION_STYLE_ASSIGNMENT((#190));
#101=EDGE_CURVE('',#97,#67,#191,.T.);
#102=PRESENTATION_STYLE_ASSIGNMENT((#192));
#103=ADVANCED_FACE('',(#193),#194,.F.);
#104=PRESENTATION_STYLE_ASSIGNMENT((#195));
#105=ADVANCED_FACE('',(#196,#197),#198,.T.);
#106=PRESENTATION_STYLE_ASSIGNMENT((#199));
#107=VERTEX_POINT('',#200);
#108=PRESENTATION_STYLE_ASSIGNMENT((#201));
#109=EDGE_CURVE('',#111,#127,#202,.T.);
#110=PRESENTATION_STYLE_ASSIGNMENT((#203));
#111=VERTEX_POINT('',#204);
#112=PRESENTATION_STYLE_ASSIGNMENT((#205));
#113=ADVANCED_FACE('',(#206,#207),#208,.T.);
#114=PRESENTATION_STYLE_ASSIGNMENT((#209));
#115=EDGE_CURVE('',#87,#81,#210,.T.);
#116=PRESENTATION_STYLE_ASSIGNMENT((#211));
#117=EDGE_CURVE('',#95,#59,#212,.T.);
#118=PRESENTATION_STYLE_ASSIGNMENT((#213));
#119=EDGE_CURVE('',#87,#67,#214,.T.);
#120=PRESENTATION_STYLE_ASSIGNMENT((#215));
#121=EDGE_CURVE('',#127,#97,#216,.T.);
#122=PRESENTATION_STYLE_ASSIGNMENT((#217));
#123=ADVANCED_FACE('',(#218),#219,.F.);
#124=PRESENTATION_STYLE_ASSIGNMENT((#220));
#125=EDGE_CURVE('',#95,#107,#221,.T.);
#126=PRESENTATION_STYLE_ASSIGNMENT((#222));
#127=VERTEX_POINT('',#223);
#128=PRODUCT('1','1','PART-1-DESC',(#224));
#129=PRODUCT_DEFINITION('NONE','NONE',#225,#2);
#130=AXIS2_PLACEMENT_3D('',#226,#227,#228);
#133=LENGTH_MEASURE_WITH_UNIT(LENGTH_MEASURE(1.0),#229);
#136=DIMENSIONAL_EXPONENTS(1.0,0.0,0.0,0.0,0.0,0.0,0.0);
#138=DIMENSIONAL_EXPONENTS(0.0,0.0,0.0,0.0,0.0,0.0,0.0);
#144=POINT_STYLE(' ',#230,POSITIVE_LENGTH_MEASURE(1.0E-006),#231);
#145=CARTESIAN_POINT('',(34.0,2.26450976909491E-014,15.0));
#146=SURFACE_STYLE_USAGE(.BOTH.,#232);
#147=CLOSED_SHELL('',(#77,#73,#123,#103,#113,#79,#105,#89));
#148=CURVE_STYLE('',#233,POSITIVE_LENGTH_MEASURE(1.0E-006),#234);
#149=CIRCLE('',#235,21.0);
#150=CURVE_STYLE('',#236,POSITIVE_LENGTH_MEASURE(1.0E-006),#237);
#151=CIRCLE('',#238,21.0);
#152=POINT_STYLE(' ',#239,POSITIVE_LENGTH_MEASURE(1.0E-006),#240);
#153=CARTESIAN_POINT('',(-21.0,9.34181981553063E-015,-2.8421709430404E-014));
#154=CURVE_STYLE('',#241,POSITIVE_LENGTH_MEASURE(1.0E-006),#242);
#155=CIRCLE('',#243,34.0);
#156=CURVE_STYLE('',#244,POSITIVE_LENGTH_MEASURE(1.0E-006),#245);
#157=LINE('',#246,#247);
#158=SURFACE_STYLE_USAGE(.BOTH.,#248);
#159=FACE_OUTER_BOUND('',#249,.T.);
#160=CYLINDRICAL_SURFACE('',#250,34.0);
#161=CURVE_STYLE('',#251,POSITIVE_LENGTH_MEASURE(1.0E-006),#252);
#162=CIRCLE('',#253,34.0);
#163=SURFACE_STYLE_USAGE(.BOTH.,#254);
#164=FACE_OUTER_BOUND('',#255,.T.);
#165=CYLINDRICAL_SURFACE('',#256,21.0);
#166=SURFACE_STYLE_USAGE(.BOTH.,#257);
#167=FACE_OUTER_BOUND('',#258,.T.);
#168=CYLINDRICAL_SURFACE('',#259,34.0);
#169=POINT_STYLE(' ',#260,POSITIVE_LENGTH_MEASURE(1.0E-006),#261);
#170=CARTESIAN_POINT('',(21.0,1.8893011015322E-014,9.80384757729325));
#171=CURVE_STYLE('',#262,POSITIVE_LENGTH_MEASURE(1.0E-006),#263);
#172=CIRCLE('',#264,34.0);
#173=CURVE_STYLE('',#265,POSITIVE_LENGTH_MEASURE(1.0E-006),#266);
#174=CIRCLE('',#267,30.0);
#175=POINT_STYLE(' ',#268,POSITIVE_LENGTH_MEASURE(1.0E-006),#269);
#176=CARTESIAN_POINT('',(21.0,1.8893011015322E-014,-2.8421709430404E-014));
#177=SURFACE_STYLE_USAGE(.BOTH.,#270);
#178=FACE_OUTER_BOUND('',#271,.T.);
#179=CYLINDRICAL_SURFACE('',#272,21.0);
#180=POINT_STYLE(' ',#273,POSITIVE_LENGTH_MEASURE(1.0E-006),#274);
#181=CARTESIAN_POINT('',(34.0,2.26450976909491E-014,-2.8421709430404E-014));
#182=CURVE_STYLE('',#275,POSITIVE_LENGTH_MEASURE(1.0E-006),#276);
#183=CIRCLE('',#277,21.0);
#184=POINT_STYLE(' ',#278,POSITIVE_LENGTH_MEASURE(1.0E-006),#279);
#185=CARTESIAN_POINT('',(-34.0,8.66828632092833E-015,15.0));
#186=POINT_STYLE(' ',#280,POSITIVE_LENGTH_MEASURE(1.0E-006),#281);
#187=CARTESIAN_POINT('',(-21.0,9.94211251728361E-015,9.80384757729325));
#188=CURVE_STYLE('',#282,POSITIVE_LENGTH_MEASURE(1.0E-006),#283);
#189=LINE('',#284,#285);
#190=CURVE_STYLE('',#286,POSITIVE_LENGTH_MEASURE(1.0E-006),#287);
#191=LINE('',#288,#289);
#192=SURFACE_STYLE_USAGE(.BOTH.,#290);
#193=FACE_OUTER_BOUND('',#291,.T.);
#194=CONICAL_SURFACE('',#292,25.5,1.04719755119659);
#195=SURFACE_STYLE_USAGE(.BOTH.,#293);
#196=FACE_BOUND('',#294,.T.);
#197=FACE_OUTER_BOUND('',#295,.T.);
#198=PLANE('',#296);
#199=POINT_STYLE(' ',#297,POSITIVE_LENGTH_MEASURE(1.0E-006),#298);
#200=CARTESIAN_POINT('',(-34.0,7.74983155556154E-015,-2.8421709430404E-014));
#201=CURVE_STYLE('',#299,POSITIVE_LENGTH_MEASURE(1.0E-006),#300);
#202=CIRCLE('',#301,30.0);
#203=POINT_STYLE(' ',#302,POSITIVE_LENGTH_MEASURE(1.0E-006),#303);
#204=CARTESIAN_POINT('',(30.0,2.14906094830638E-014,15.0));
#205=SURFACE_STYLE_USAGE(.BOTH.,#304);
#206=FACE_OUTER_BOUND('',#305,.T.);
#207=FACE_BOUND('',#306,.T.);
#208=PLANE('',#307);
#209=CURVE_STYLE('',#308,POSITIVE_LENGTH_MEASURE(1.0E-006),#309);
#210=LINE('',#310,#311);
#211=CURVE_STYLE('',#312,POSITIVE_LENGTH_MEASURE(1.0E-006),#313);
#212=CIRCLE('',#314,34.0);
#213=CURVE_STYLE('',#315,POSITIVE_LENGTH_MEASURE(1.0E-006),#316);
#214=CIRCLE('',#317,21.0);
#215=CURVE_STYLE('',#318,POSITIVE_LENGTH_MEASURE(1.0E-006),#319);
#216=LINE('',#320,#321);
#217=SURFACE_STYLE_USAGE(.BOTH.,#322);
#218=FACE_OUTER_BOUND('',#323,.T.);
#219=CONICAL_SURFACE('',#324,25.5,1.04719755119659);
#220=CURVE_STYLE('',#325,POSITIVE_LENGTH_MEASURE(1.0E-006),#326);
#221=LINE('',#327,#328);
#222=POINT_STYLE(' ',#329,POSITIVE_LENGTH_MEASURE(1.0E-006),#330);
#223=CARTESIAN_POINT('',(-30.0,9.15812886245728E-015,15.0));
#224=PRODUCT_CONTEXT('',#45,'mechanical');
#225=PRODUCT_DEFINITION_FORMATION_WITH_SPECIFIED_SOURCE(' ','NONE',#128,.NOT_KNOWN.);
#226=CARTESIAN_POINT('',(0.0,0.0,0.0));
#227=DIRECTION('',(0.0,0.0,1.0));
#228=DIRECTION('',(1.0,0.0,0.0));
#229= (NAMED_UNIT(#136)LENGTH_UNIT()SI_UNIT(.MILLI.,.METRE.));
#230=PRE_DEFINED_MARKER('');
#231=COLOUR_RGB('',0.509803950786591,0.509803950786591,0.588235318660736);
#232=SURFACE_SIDE_STYLE('',(#332));
#233=DRAUGHTING_PRE_DEFINED_CURVE_FONT('continuous');
#234=COLOUR_RGB('',0.509803950786591,0.509803950786591,0.588235318660736);
#235=AXIS2_PLACEMENT_3D('',#333,#334,#335);
#236=DRAUGHTING_PRE_DEFINED_CURVE_FONT('continuous');
#237=COLOUR_RGB('',0.509803950786591,0.509803950786591,0.588235318660736);
#238=AXIS2_PLACEMENT_3D('',#336,#337,#338);
#239=PRE_DEFINED_MARKER('');
#240=COLOUR_RGB('',0.509803950786591,0.509803950786591,0.588235318660736);
#241=DRAUGHTING_PRE_DEFINED_CURVE_FONT('continuous');
#242=COLOUR_RGB('',0.509803950786591,0.509803950786591,0.588235318660736);
#243=AXIS2_PLACEMENT_3D('',#339,#340,#341);
#244=DRAUGHTING_PRE_DEFINED_CURVE_FONT('continuous');
#245=COLOUR_RGB('',0.509803950786591,0.509803950786591,0.588235318660736);
#246=CARTESIAN_POINT('',(34.0,2.26450976909491E-014,7.49999999999997));
#247=VECTOR('',#342,1.0);
#248=SURFACE_SIDE_STYLE('',(#343));
#249=EDGE_LOOP('',(#344,#345,#346,#347));
#250=AXIS2_PLACEMENT_3D('',#348,#349,#350);
#251=DRAUGHTING_PRE_DEFINED_CURVE_FONT('continuous');
#252=COLOUR_RGB('',0.509803950786591,0.509803950786591,0.588235318660736);
#253=AXIS2_PLACEMENT_3D('',#351,#352,#353);
#254=SURFACE_SIDE_STYLE('',(#354));
#255=EDGE_LOOP('',(#355,#356,#357,#358));
#256=AXIS2_PLACEMENT_3D('',#359,#360,#361);
#257=SURFACE_SIDE_STYLE('',(#362));
#258=EDGE_LOOP('',(#363,#364,#365,#366));
#259=AXIS2_PLACEMENT_3D('',#367,#368,#369);
#260=PRE_DEFINED_MARKER('');
#261=COLOUR_RGB('',0.509803950786591,0.509803950786591,0.588235318660736);
#262=DRAUGHTING_PRE_DEFINED_CURVE_FONT('continuous');
#263=COLOUR_RGB('',0.509803950786591,0.509803950786591,0.588235318660736);
#264=AXIS2_PLACEMENT_3D('',#370,#371,#372);
#265=DRAUGHTING_PRE_DEFINED_CURVE_FONT('continuous');
#266=COLOUR_RGB('',0.509803950786591,0.509803950786591,0.588235318660736);
#267=AXIS2_PLACEMENT_3D('',#373,#374,#375);
#268=PRE_DEFINED_MARKER('');
#269=COLOUR_RGB('',0.509803950786591,0.509803950786591,0.588235318660736);
#270=SURFACE_SIDE_STYLE('',(#376));
#271=EDGE_LOOP('',(#377,#378,#379,#380));
#272=AXIS2_PLACEMENT_3D('',#381,#382,#383);
#273=PRE_DEFINED_MARKER('');
#274=COLOUR_RGB('',0.509803950786591,0.509803950786591,0.588235318660736);
#275=DRAUGHTING_PRE_DEFINED_CURVE_FONT('continuous');
#276=COLOUR_RGB('',0.509803950786591,0.509803950786591,0.588235318660736);
#277=AXIS2_PLACEMENT_3D('',#384,#385,#386);
#278=PRE_DEFINED_MARKER('');
#279=COLOUR_RGB('',0.509803950786591,0.509803950786591,0.588235318660736);
#280=PRE_DEFINED_MARKER('');
#281=COLOUR_RGB('',0.509803950786591,0.509803950786591,0.588235318660736);
#282=DRAUGHTING_PRE_DEFINED_CURVE_FONT('continuous');
#283=COLOUR_RGB('',0.509803950786591,0.509803950786591,0.588235318660736);
#284=CARTESIAN_POINT('',(25.5,2.01918102491929E-014,12.4019237886466));
#285=VECTOR('',#387,1.0);
#286=DRAUGHTING_PRE_DEFINED_CURVE_FONT('continuous');
#287=COLOUR_RGB('',0.509803950786591,0.509803950786591,0.588235318660736);
#288=CARTESIAN_POINT('',(-21.0,6.7708848325268E-015,4.90192378864661));
#289=VECTOR('',#388,1.0);
#290=SURFACE_SIDE_STYLE('',(#389));
#291=EDGE_LOOP('',(#390,#391,#392,#393));
#292=AXIS2_PLACEMENT_3D('',#394,#395,#396);
#293=SURFACE_SIDE_STYLE('',(#397));
#294=EDGE_LOOP('',(#398,#399));
#295=EDGE_LOOP('',(#400,#401));
#296=AXIS2_PLACEMENT_3D('',#402,#403,#404);
#297=PRE_DEFINED_MARKER('');
#298=COLOUR_RGB('',0.509803950786591,0.509803950786591,0.588235318660736);
#299=DRAUGHTING_PRE_DEFINED_CURVE_FONT('continuous');
#300=COLOUR_RGB('',0.509803950786591,0.509803950786591,0.588235318660736);
#301=AXIS2_PLACEMENT_3D('',#405,#406,#407);
#302=PRE_DEFINED_MARKER('');
#303=COLOUR_RGB('',0.509803950786591,0.509803950786591,0.588235318660736);
#304=SURFACE_SIDE_STYLE('',(#408));
#305=EDGE_LOOP('',(#409,#410));
#306=EDGE_LOOP('',(#411,#412));
#307=AXIS2_PLACEMENT_3D('',#413,#414,#415);
#308=DRAUGHTING_PRE_DEFINED_CURVE_FONT('continuous');
#309=COLOUR_RGB('',0.509803950786591,0.509803950786591,0.588235318660736);
#310=CARTESIAN_POINT('',(21.0,1.8893011015322E-014,4.90192378864661));
#311=VECTOR('',#416,1.0);
#312=DRAUGHTING_PRE_DEFINED_CURVE_FONT('continuous');
#313=COLOUR_RGB('',0.509803950786591,0.509803950786591,0.588235318660736);
#314=AXIS2_PLACEMENT_3D('',#417,#418,#419);
#315=DRAUGHTING_PRE_DEFINED_CURVE_FONT('continuous');
#316=COLOUR_RGB('',0.509803950786591,0.509803950786591,0.588235318660736);
#317=AXIS2_PLACEMENT_3D('',#420,#421,#422);
#318=DRAUGHTING_PRE_DEFINED_CURVE_FONT('continuous');
#319=COLOUR_RGB('',0.509803950786591,0.509803950786591,0.588235318660736);
#320=CARTESIAN_POINT('',(-25.5,5.47208559865588E-015,12.4019237886466));
#321=VECTOR('',#423,1.0);
#322=SURFACE_SIDE_STYLE('',(#424));
#323=EDGE_LOOP('',(#425,#426,#427,#428));
#324=AXIS2_PLACEMENT_3D('',#429,#430,#431);
#325=DRAUGHTING_PRE_DEFINED_CURVE_FONT('continuous');
#326=COLOUR_RGB('',0.509803950786591,0.509803950786591,0.588235318660736);
#327=CARTESIAN_POINT('',(-34.0,3.01879815689971E-015,7.49999999999997));
#328=VECTOR('',#432,1.0);
#329=PRE_DEFINED_MARKER('');
#330=COLOUR_RGB('',0.509803950786591,0.509803950786591,0.588235318660736);
#332=SURFACE_STYLE_FILL_AREA(#433);
#333=CARTESIAN_POINT('',(0.0,1.28319479239244E-014,-2.8421709430404E-014));
#334=DIRECTION('',(-0.0,0.0,-1.0));
#335=DIRECTION('',(-1.0,-1.66161416589077E-016,0.0));
#336=CARTESIAN_POINT('',(0.0,1.28319479239244E-014,9.80384757729325));
#337=DIRECTION('',(-0.0,0.0,-1.0));
#338=DIRECTION('',(-1.0,-1.66161416589077E-016,0.0));
#339=CARTESIAN_POINT('',(0.0,1.28319479239244E-014,-2.8421709430404E-014));
#340=DIRECTION('',(-0.0,0.0,-1.0));
#341=DIRECTION('',(-1.0,-1.66161416589077E-016,0.0));
#342=DIRECTION('',(-0.0,-0.0,1.0));
#343=SURFACE_STYLE_FILL_AREA(#434);
#344=ORIENTED_EDGE('',*,*,#125,.F.);
#345=ORIENTED_EDGE('',*,*,#117,.T.);
#346=ORIENTED_EDGE('',*,*,#71,.F.);
#347=ORIENTED_EDGE('',*,*,#69,.F.);
#348=CARTESIAN_POINT('',(0.0,1.28319479239244E-014,7.49999999999997));
#349=DIRECTION('',(0.0,-0.0,1.0));
#350=DIRECTION('',(-1.0,-1.66161416589077E-016,0.0));
#351=CARTESIAN_POINT('',(0.0,1.28319479239244E-014,-2.8421709430404E-014));
#352=DIRECTION('',(-0.0,0.0,-1.0));
#353=DIRECTION('',(-1.0,-1.66161416589077E-016,0.0));
#354=SURFACE_STYLE_FILL_AREA(#435);
#355=ORIENTED_EDGE('',*,*,#101,.F.);
#356=ORIENTED_EDGE('',*,*,#65,.F.);
#357=ORIENTED_EDGE('',*,*,#115,.F.);
#358=ORIENTED_EDGE('',*,*,#119,.T.);
#359=CARTESIAN_POINT('',(0.0,1.28319479239244E-014,4.90192378864661));
#360=DIRECTION('',(0.0,-0.0,1.0));
#361=DIRECTION('',(-1.0,-1.66161416589077E-016,0.0));
#362=SURFACE_STYLE_FILL_AREA(#436);
#363=ORIENTED_EDGE('',*,*,#125,.T.);
#364=ORIENTED_EDGE('',*,*,#75,.F.);
#365=ORIENTED_EDGE('',*,*,#71,.T.);
#366=ORIENTED_EDGE('',*,*,#83,.T.);
#367=CARTESIAN_POINT('',(0.0,1.28319479239244E-014,7.49999999999997));
#368=DIRECTION('',(0.0,-0.0,1.0));
#369=DIRECTION('',(-1.0,-1.66161416589077E-016,0.0));
#370=CARTESIAN_POINT('',(0.0,1.28319479239244E-014,15.0));
#371=DIRECTION('',(-0.0,0.0,-1.0));
#372=DIRECTION('',(-1.0,-1.66161416589077E-016,0.0));
#373=CARTESIAN_POINT('',(0.0,1.28319479239244E-014,15.0));
#374=DIRECTION('',(-0.0,0.0,-1.0));
#375=DIRECTION('',(-1.0,-1.66161416589077E-016,0.0));
#376=SURFACE_STYLE_FILL_AREA(#437);
#377=ORIENTED_EDGE('',*,*,#101,.T.);
#378=ORIENTED_EDGE('',*,*,#63,.T.);
#379=ORIENTED_EDGE('',*,*,#115,.T.);
#380=ORIENTED_EDGE('',*,*,#93,.F.);
#381=CARTESIAN_POINT('',(0.0,1.28319479239244E-014,4.90192378864661));
#382=DIRECTION('',(0.0,-0.0,1.0));
#383=DIRECTION('',(-1.0,-1.66161416589077E-016,0.0));
#384=CARTESIAN_POINT('',(0.0,1.28319479239244E-014,9.80384757729325));
#385=DIRECTION('',(-0.0,0.0,-1.0));
#386=DIRECTION('',(-1.0,-1.66161416589077E-016,0.0));
#387=DIRECTION('',(0.866025403784435,2.4995402909955E-016,0.500000000000006));
#388=DIRECTION('',(0.0,0.0,-1.0));
#389=SURFACE_STYLE_FILL_AREA(#438);
#390=ORIENTED_EDGE('',*,*,#121,.T.);
#391=ORIENTED_EDGE('',*,*,#93,.T.);
#392=ORIENTED_EDGE('',*,*,#99,.T.);
#393=ORIENTED_EDGE('',*,*,#85,.F.);
#394=CARTESIAN_POINT('',(0.0,1.28319479239244E-014,12.4019237886466));
#395=DIRECTION('',(0.0,-0.0,1.0));
#396=DIRECTION('',(-1.0,-1.66161416589077E-016,0.0));
#397=SURFACE_STYLE_FILL_AREA(#439);
#398=ORIENTED_EDGE('',*,*,#63,.F.);
#399=ORIENTED_EDGE('',*,*,#119,.F.);
#400=ORIENTED_EDGE('',*,*,#69,.T.);
#401=ORIENTED_EDGE('',*,*,#75,.T.);
#402=CARTESIAN_POINT('',(-27.5,8.54582568554609E-015,-2.8421709430404E-014));
#403=DIRECTION('',(0.0,0.0,-1.0));
#404=DIRECTION('',(1.0,1.22460635382238E-016,0.0));
#405=CARTESIAN_POINT('',(0.0,1.28319479239244E-014,15.0));
#406=DIRECTION('',(-0.0,0.0,-1.0));
#407=DIRECTION('',(-1.0,-1.66161416589077E-016,0.0));
#408=SURFACE_STYLE_FILL_AREA(#440);
#409=ORIENTED_EDGE('',*,*,#117,.F.);
#410=ORIENTED_EDGE('',*,*,#83,.F.);
#411=ORIENTED_EDGE('',*,*,#85,.T.);
#412=ORIENTED_EDGE('',*,*,#109,.T.);
#413=CARTESIAN_POINT('',(-32.0,8.9132075916928E-015,15.0));
#414=DIRECTION('',(0.0,0.0,1.0));
#415=DIRECTION('',(-1.0,-1.22460635382238E-016,0.0));
#416=DIRECTION('',(0.0,0.0,1.0));
#417=CARTESIAN_POINT('',(0.0,1.28319479239244E-014,15.0));
#418=DIRECTION('',(-0.0,0.0,-1.0));
#419=DIRECTION('',(-1.0,-1.66161416589077E-016,0.0));
#420=CARTESIAN_POINT('',(0.0,1.28319479239244E-014,-2.8421709430404E-014));
#421=DIRECTION('',(-0.0,0.0,-1.0));
#422=DIRECTION('',(-1.0,-1.66161416589077E-016,0.0));
#423=DIRECTION('',(0.866025403784435,2.4995402909955E-016,-0.500000000000006));
#424=SURFACE_STYLE_FILL_AREA(#441);
#425=ORIENTED_EDGE('',*,*,#121,.F.);
#426=ORIENTED_EDGE('',*,*,#109,.F.);
#427=ORIENTED_EDGE('',*,*,#99,.F.);
#428=ORIENTED_EDGE('',*,*,#65,.T.);
#429=CARTESIAN_POINT('',(0.0,1.28319479239244E-014,12.4019237886466));
#430=DIRECTION('',(0.0,-0.0,1.0));
#431=DIRECTION('',(-1.0,-1.66161416589077E-016,0.0));
#432=DIRECTION('',(0.0,0.0,-1.0));
#433=FILL_AREA_STYLE('',(#442));
#434=FILL_AREA_STYLE('',(#443));
#435=FILL_AREA_STYLE('',(#444));
#436=FILL_AREA_STYLE('',(#445));
#437=FILL_AREA_STYLE('',(#446));
#438=FILL_AREA_STYLE('',(#447));
#439=FILL_AREA_STYLE('',(#448));
#440=FILL_AREA_STYLE('',(#449));
#441=FILL_AREA_STYLE('',(#450));
#442=FILL_AREA_STYLE_COLOUR('',#451);
#443=FILL_AREA_STYLE_COLOUR('',#452);
#444=FILL_AREA_STYLE_COLOUR('',#453);
#445=FILL_AREA_STYLE_COLOUR('',#454);
#446=FILL_AREA_STYLE_COLOUR('',#455);
#447=FILL_AREA_STYLE_COLOUR('',#456);
#448=FILL_AREA_STYLE_COLOUR('',#457);
#449=FILL_AREA_STYLE_COLOUR('',#458);
#450=FILL_AREA_STYLE_COLOUR('',#459);
#451=COLOUR_RGB('',0.509803950786591,0.509803950786591,0.588235318660736);
#452=COLOUR_RGB('',0.509803950786591,0.509803950786591,0.588235318660736);
#453=COLOUR_RGB('',0.509803950786591,0.509803950786591,0.588235318660736);
#454=COLOUR_RGB('',0.509803950786591,0.509803950786591,0.588235318660736);
#455=COLOUR_RGB('',0.509803950786591,0.509803950786591,0.588235318660736);
#456=COLOUR_RGB('',0.509803950786591,0.509803950786591,0.588235318660736);
#457=COLOUR_RGB('',0.509803950786591,0.509803950786591,0.588235318660736);
#458=COLOUR_RGB('',0.509803950786591,0.509803950786591,0.588235318660736);
#459=COLOUR_RGB('',0.509803950786591,0.509803950786591,0.588235318660736);
ENDSEC;
END-ISO-10303-21;
