ISO-10303-21;
HEADER;
FILE_DESCRIPTION(('STEP AP214'),'1');
FILE_NAME(' ','  ',('TraceParts'),('TraceParts S.A.'),'XStep 1.0',' ',' ');
FILE_SCHEMA(('automotive_design'));
ENDSEC;
DATA;
#1=MECHANICAL_DESIGN_GEOMETRIC_PRESENTATION_REPRESENTATION(' ',(#10,#11,#12,#13,#14,#15,#16,#17,#18,#19,#20,#21,#22,#23,#24,#25,#26,#27,#28,#29,#30,#31,#32,#33,#34,#35,#36,#37,#38,#39,#40,#41,#42,#43,#44),#6);
#2=PRODUCT_DEFINITION_CONTEXT('',#45,'design');
#3=APPLICATION_PROTOCOL_DEFINITION('INTERNATIONAL STANDARD','automotive_design',1994,#45);
#4=PRODUCT_CATEGORY_RELATIONSHIP('NONE','NONE',#46,#47);
#5=SHAPE_DEFINITION_REPRESENTATION(#48,#49);
#6= (GEOMETRIC_REPRESENTATION_CONTEXT(3)GLOBAL_UNCERTAINTY_ASSIGNED_CONTEXT((#52))GLOBAL_UNIT_ASSIGNED_CONTEXT((#54,#55,#56))REPRESENTATION_CONTEXT('NONE','WORKSPACE'));
#10=STYLED_ITEM('',(#58),#59);
#11=STYLED_ITEM('',(#60),#61);
#12=STYLED_ITEM('',(#62),#63);
#13=STYLED_ITEM('',(#64),#65);
#14=STYLED_ITEM('',(#66),#67);
#15=STYLED_ITEM('',(#68),#69);
#16=STYLED_ITEM('',(#70),#71);
#17=STYLED_ITEM('',(#72),#73);
#18=STYLED_ITEM('',(#74),#75);
#19=STYLED_ITEM('',(#76),#77);
#20=STYLED_ITEM('',(#78),#79);
#21=STYLED_ITEM('',(#80),#81);
#22=STYLED_ITEM('',(#82),#83);
#23=STYLED_ITEM('',(#84),#85);
#24=STYLED_ITEM('',(#86),#87);
#25=STYLED_ITEM('',(#88),#89);
#26=STYLED_ITEM('',(#90),#91);
#27=STYLED_ITEM('',(#92),#93);
#28=STYLED_ITEM('',(#94),#95);
#29=STYLED_ITEM('',(#96),#97);
#30=STYLED_ITEM('',(#98),#99);
#31=STYLED_ITEM('',(#100),#101);
#32=STYLED_ITEM('',(#102),#103);
#33=STYLED_ITEM('',(#104),#105);
#34=STYLED_ITEM('',(#106),#107);
#35=STYLED_ITEM('',(#108),#109);
#36=STYLED_ITEM('',(#110),#111);
#37=STYLED_ITEM('',(#112),#113);
#38=STYLED_ITEM('',(#114),#115);
#39=STYLED_ITEM('',(#116),#117);
#40=STYLED_ITEM('',(#118),#119);
#41=STYLED_ITEM('',(#120),#121);
#42=STYLED_ITEM('',(#122),#123);
#43=STYLED_ITEM('',(#124),#125);
#44=STYLED_ITEM('',(#126),#127);
#45=APPLICATION_CONTEXT(' ');
#46=PRODUCT_CATEGORY('part','NONE');
#47=PRODUCT_RELATED_PRODUCT_CATEGORY('detail',' ',(#128));
#48=PRODUCT_DEFINITION_SHAPE('NONE','NONE',#129);
#49=ADVANCED_BREP_SHAPE_REPRESENTATION('1',(#61,#130),#6);
#52=UNCERTAINTY_MEASURE_WITH_UNIT(LENGTH_MEASURE(1.0E-006),#54,'','');
#54= (CONVERSION_BASED_UNIT('MILLIMETRE',#133)LENGTH_UNIT()NAMED_UNIT(#136));
#55= (NAMED_UNIT(#138)PLANE_ANGLE_UNIT()SI_UNIT($,.RADIAN.));
#56= (NAMED_UNIT(#138)SOLID_ANGLE_UNIT()SI_UNIT($,.STERADIAN.));
#58=PRESENTATION_STYLE_ASSIGNMENT((#144));
#59=EDGE_CURVE('',#109,#111,#145,.T.);
#60=PRESENTATION_STYLE_ASSIGNMENT((#146));
#61=MANIFOLD_SOLID_BREP('1',#147);
#62=PRESENTATION_STYLE_ASSIGNMENT((#148));
#63=VERTEX_POINT('',#149);
#64=PRESENTATION_STYLE_ASSIGNMENT((#150));
#65=EDGE_CURVE('',#87,#91,#151,.T.);
#66=PRESENTATION_STYLE_ASSIGNMENT((#152));
#67=EDGE_CURVE('',#89,#91,#153,.T.);
#68=PRESENTATION_STYLE_ASSIGNMENT((#154));
#69=ADVANCED_FACE('',(#155,#156),#157,.T.);
#70=PRESENTATION_STYLE_ASSIGNMENT((#158));
#71=ADVANCED_FACE('',(#159),#160,.T.);
#72=PRESENTATION_STYLE_ASSIGNMENT((#161));
#73=ADVANCED_FACE('',(#162),#163,.F.);
#74=PRESENTATION_STYLE_ASSIGNMENT((#164));
#75=ADVANCED_FACE('',(#165,#166),#167,.T.);
#76=PRESENTATION_STYLE_ASSIGNMENT((#168));
#77=ADVANCED_FACE('',(#169),#170,.F.);
#78=PRESENTATION_STYLE_ASSIGNMENT((#171));
#79=VERTEX_POINT('',#172);
#80=PRESENTATION_STYLE_ASSIGNMENT((#173));
#81=EDGE_CURVE('',#93,#87,#174,.T.);
#82=PRESENTATION_STYLE_ASSIGNMENT((#175));
#83=EDGE_CURVE('',#91,#89,#176,.T.);
#84=PRESENTATION_STYLE_ASSIGNMENT((#177));
#85=EDGE_CURVE('',#79,#117,#178,.T.);
#86=PRESENTATION_STYLE_ASSIGNMENT((#179));
#87=VERTEX_POINT('',#180);
#88=PRESENTATION_STYLE_ASSIGNMENT((#181));
#89=VERTEX_POINT('',#182);
#90=PRESENTATION_STYLE_ASSIGNMENT((#183));
#91=VERTEX_POINT('',#184);
#92=PRESENTATION_STYLE_ASSIGNMENT((#185));
#93=VERTEX_POINT('',#186);
#94=PRESENTATION_STYLE_ASSIGNMENT((#187));
#95=VERTEX_POINT('',#188);
#96=PRESENTATION_STYLE_ASSIGNMENT((#189));
#97=EDGE_CURVE('',#95,#63,#190,.T.);
#98=PRESENTATION_STYLE_ASSIGNMENT((#191));
#99=EDGE_CURVE('',#87,#93,#192,.T.);
#100=PRESENTATION_STYLE_ASSIGNMENT((#193));
#101=EDGE_CURVE('',#63,#117,#194,.T.);
#102=PRESENTATION_STYLE_ASSIGNMENT((#195));
#103=EDGE_CURVE('',#95,#109,#196,.T.);
#104=PRESENTATION_STYLE_ASSIGNMENT((#197));
#105=EDGE_CURVE('',#117,#79,#198,.T.);
#106=PRESENTATION_STYLE_ASSIGNMENT((#199));
#107=EDGE_CURVE('',#63,#95,#200,.T.);
#108=PRESENTATION_STYLE_ASSIGNMENT((#201));
#109=VERTEX_POINT('',#202);
#110=PRESENTATION_STYLE_ASSIGNMENT((#203));
#111=VERTEX_POINT('',#204);
#112=PRESENTATION_STYLE_ASSIGNMENT((#205));
#113=EDGE_CURVE('',#111,#63,#206,.T.);
#114=PRESENTATION_STYLE_ASSIGNMENT((#207));
#115=ADVANCED_FACE('',(#208),#209,.F.);
#116=PRESENTATION_STYLE_ASSIGNMENT((#210));
#117=VERTEX_POINT('',#211);
#118=PRESENTATION_STYLE_ASSIGNMENT((#212));
#119=ADVANCED_FACE('',(#213),#214,.F.);
#120=PRESENTATION_STYLE_ASSIGNMENT((#215));
#121=ADVANCED_FACE('',(#216),#217,.T.);
#122=PRESENTATION_STYLE_ASSIGNMENT((#218));
#123=EDGE_CURVE('',#111,#109,#219,.T.);
#124=PRESENTATION_STYLE_ASSIGNMENT((#220));
#125=EDGE_CURVE('',#89,#93,#221,.T.);
#126=PRESENTATION_STYLE_ASSIGNMENT((#222));
#127=EDGE_CURVE('',#79,#95,#223,.T.);
#128=PRODUCT('1','1','PART-1-DESC',(#224));
#129=PRODUCT_DEFINITION('NONE','NONE',#225,#2);
#130=AXIS2_PLACEMENT_3D('',#226,#227,#228);
#133=LENGTH_MEASURE_WITH_UNIT(LENGTH_MEASURE(1.0),#229);
#136=DIMENSIONAL_EXPONENTS(1.0,0.0,0.0,0.0,0.0,0.0,0.0);
#138=DIMENSIONAL_EXPONENTS(0.0,0.0,0.0,0.0,0.0,0.0,0.0);
#144=CURVE_STYLE('',#230,POSITIVE_LENGTH_MEASURE(1.0E-006),#231);
#145=CIRCLE('',#232,6.0);
#146=SURFACE_STYLE_USAGE(.BOTH.,#233);
#147=CLOSED_SHELL('',(#119,#71,#115,#77,#69,#121,#75,#73));
#148=POINT_STYLE(' ',#234,POSITIVE_LENGTH_MEASURE(1.0E-006),#235);
#149=CARTESIAN_POINT('',(6.00000000000003,1.30032178146216E-014,2.32361162513362));
#150=CURVE_STYLE('',#236,POSITIVE_LENGTH_MEASURE(1.0E-006),#237);
#151=LINE('',#238,#239);
#152=CURVE_STYLE('',#240,POSITIVE_LENGTH_MEASURE(1.0E-006),#241);
#153=CIRCLE('',#242,10.5);
#154=SURFACE_STYLE_USAGE(.BOTH.,#243);
#155=FACE_OUTER_BOUND('',#244,.T.);
#156=FACE_BOUND('',#245,.T.);
#157=PLANE('',#246);
#158=SURFACE_STYLE_USAGE(.BOTH.,#247);
#159=FACE_OUTER_BOUND('',#248,.T.);
#160=CYLINDRICAL_SURFACE('',#249,10.5);
#161=SURFACE_STYLE_USAGE(.BOTH.,#250);
#162=FACE_OUTER_BOUND('',#251,.T.);
#163=CYLINDRICAL_SURFACE('',#252,6.0);
#164=SURFACE_STYLE_USAGE(.BOTH.,#253);
#165=FACE_BOUND('',#254,.T.);
#166=FACE_OUTER_BOUND('',#255,.T.);
#167=PLANE('',#256);
#168=SURFACE_STYLE_USAGE(.BOTH.,#257);
#169=FACE_OUTER_BOUND('',#258,.T.);
#170=CONICAL_SURFACE('',#259,7.62500000000001,1.04719755119659);
#171=POINT_STYLE(' ',#260,POSITIVE_LENGTH_MEASURE(1.0E-006),#261);
#172=CARTESIAN_POINT('',(-9.25,1.01439369772843E-014,4.19999999999996));
#173=CURVE_STYLE('',#262,POSITIVE_LENGTH_MEASURE(1.0E-006),#263);
#174=CIRCLE('',#264,10.5);
#175=CURVE_STYLE('',#265,POSITIVE_LENGTH_MEASURE(1.0E-006),#266);
#176=CIRCLE('',#267,10.5);
#177=CURVE_STYLE('',#268,POSITIVE_LENGTH_MEASURE(1.0E-006),#269);
#178=CIRCLE('',#270,9.25000000000003);
#179=POINT_STYLE(' ',#271,POSITIVE_LENGTH_MEASURE(1.0E-006),#272);
#180=CARTESIAN_POINT('',(-10.5,9.99086118305649E-015,4.19999999999996));
#181=POINT_STYLE(' ',#273,POSITIVE_LENGTH_MEASURE(1.0E-006),#274);
#182=CARTESIAN_POINT('',(10.5000000000001,1.42981077846603E-014,-2.8421709430404E-014));
#183=POINT_STYLE(' ',#275,POSITIVE_LENGTH_MEASURE(1.0E-006),#276);
#184=CARTESIAN_POINT('',(-10.5,9.73369384875379E-015,-2.8421709430404E-014));
#185=POINT_STYLE(' ',#277,POSITIVE_LENGTH_MEASURE(1.0E-006),#278);
#186=CARTESIAN_POINT('',(10.5000000000001,1.42981077846603E-014,4.19999999999996));
#187=POINT_STYLE(' ',#279,POSITIVE_LENGTH_MEASURE(1.0E-006),#280);
#188=CARTESIAN_POINT('',(-5.99999999999997,1.04270421859716E-014,2.32361162513362));
#189=CURVE_STYLE('',#281,POSITIVE_LENGTH_MEASURE(1.0E-006),#282);
#190=CIRCLE('',#283,6.0);
#191=CURVE_STYLE('',#284,POSITIVE_LENGTH_MEASURE(1.0E-006),#285);
#192=CIRCLE('',#286,10.5);
#193=CURVE_STYLE('',#287,POSITIVE_LENGTH_MEASURE(1.0E-006),#288);
#194=LINE('',#289,#290);
#195=CURVE_STYLE('',#291,POSITIVE_LENGTH_MEASURE(1.0E-006),#292);
#196=LINE('',#293,#294);
#197=CURVE_STYLE('',#295,POSITIVE_LENGTH_MEASURE(1.0E-006),#296);
#198=CIRCLE('',#297,9.25000000000003);
#199=CURVE_STYLE('',#298,POSITIVE_LENGTH_MEASURE(1.0E-006),#299);
#200=CIRCLE('',#300,6.0);
#201=POINT_STYLE(' ',#301,POSITIVE_LENGTH_MEASURE(1.0E-006),#302);
#202=CARTESIAN_POINT('',(-5.99999999999997,1.02847667079739E-014,-2.8421709430404E-014));
#203=POINT_STYLE(' ',#303,POSITIVE_LENGTH_MEASURE(1.0E-006),#304);
#204=CARTESIAN_POINT('',(6.00000000000003,1.30032178146216E-014,-2.8421709430404E-014));
#205=CURVE_STYLE('',#305,POSITIVE_LENGTH_MEASURE(1.0E-006),#306);
#206=LINE('',#307,#308);
#207=SURFACE_STYLE_USAGE(.BOTH.,#309);
#208=FACE_OUTER_BOUND('',#310,.T.);
#209=CONICAL_SURFACE('',#311,7.62500000000001,1.04719755119659);
#210=POINT_STYLE(' ',#312,POSITIVE_LENGTH_MEASURE(1.0E-006),#313);
#211=CARTESIAN_POINT('',(9.25000000000006,1.39384161263162E-014,4.19999999999996));
#212=SURFACE_STYLE_USAGE(.BOTH.,#314);
#213=FACE_OUTER_BOUND('',#315,.T.);
#214=CYLINDRICAL_SURFACE('',#316,6.0);
#215=SURFACE_STYLE_USAGE(.BOTH.,#317);
#216=FACE_OUTER_BOUND('',#318,.T.);
#217=CYLINDRICAL_SURFACE('',#319,10.5);
#218=CURVE_STYLE('',#320,POSITIVE_LENGTH_MEASURE(1.0E-006),#321);
#219=CIRCLE('',#322,6.0);
#220=CURVE_STYLE('',#323,POSITIVE_LENGTH_MEASURE(1.0E-006),#324);
#221=LINE('',#325,#326);
#222=CURVE_STYLE('',#327,POSITIVE_LENGTH_MEASURE(1.0E-006),#328);
#223=LINE('',#329,#330);
#224=PRODUCT_CONTEXT('',#45,'mechanical');
#225=PRODUCT_DEFINITION_FORMATION_WITH_SPECIFIED_SOURCE(' ','NONE',#128,.NOT_KNOWN.);
#226=CARTESIAN_POINT('',(0.0,0.0,0.0));
#227=DIRECTION('',(0.0,0.0,1.0));
#228=DIRECTION('',(1.0,0.0,0.0));
#229= (NAMED_UNIT(#136)LENGTH_UNIT()SI_UNIT(.MILLI.,.METRE.));
#230=DRAUGHTING_PRE_DEFINED_CURVE_FONT('continuous');
#231=COLOUR_RGB('',0.509803950786591,0.509803950786591,0.588235318660736);
#232=AXIS2_PLACEMENT_3D('',#332,#333,#334);
#233=SURFACE_SIDE_STYLE('',(#335));
#234=PRE_DEFINED_MARKER('');
#235=COLOUR_RGB('',0.509803950786591,0.509803950786591,0.588235318660736);
#236=DRAUGHTING_PRE_DEFINED_CURVE_FONT('continuous');
#237=COLOUR_RGB('',0.509803950786591,0.509803950786591,0.588235318660736);
#238=CARTESIAN_POINT('',(-10.5,8.25528792447965E-015,2.09999999999997));
#239=VECTOR('',#336,1.0);
#240=DRAUGHTING_PRE_DEFINED_CURVE_FONT('continuous');
#241=COLOUR_RGB('',0.509803950786591,0.509803950786591,0.588235318660736);
#242=AXIS2_PLACEMENT_3D('',#337,#338,#339);
#243=SURFACE_SIDE_STYLE('',(#340));
#244=EDGE_LOOP('',(#341,#342));
#245=EDGE_LOOP('',(#343,#344));
#246=AXIS2_PLACEMENT_3D('',#345,#346,#347);
#247=SURFACE_SIDE_STYLE('',(#348));
#248=EDGE_LOOP('',(#349,#350,#351,#352));
#249=AXIS2_PLACEMENT_3D('',#353,#354,#355);
#250=SURFACE_SIDE_STYLE('',(#356));
#251=EDGE_LOOP('',(#357,#358,#359,#360));
#252=AXIS2_PLACEMENT_3D('',#361,#362,#363);
#253=SURFACE_SIDE_STYLE('',(#364));
#254=EDGE_LOOP('',(#365,#366));
#255=EDGE_LOOP('',(#367,#368));
#256=AXIS2_PLACEMENT_3D('',#369,#370,#371);
#257=SURFACE_SIDE_STYLE('',(#372));
#258=EDGE_LOOP('',(#373,#374,#375,#376));
#259=AXIS2_PLACEMENT_3D('',#377,#378,#379);
#260=PRE_DEFINED_MARKER('');
#261=COLOUR_RGB('',0.509803950786591,0.509803950786591,0.588235318660736);
#262=DRAUGHTING_PRE_DEFINED_CURVE_FONT('continuous');
#263=COLOUR_RGB('',0.509803950786591,0.509803950786591,0.588235318660736);
#264=AXIS2_PLACEMENT_3D('',#380,#381,#382);
#265=DRAUGHTING_PRE_DEFINED_CURVE_FONT('continuous');
#266=COLOUR_RGB('',0.509803950786591,0.509803950786591,0.588235318660736);
#267=AXIS2_PLACEMENT_3D('',#383,#384,#385);
#268=DRAUGHTING_PRE_DEFINED_CURVE_FONT('continuous');
#269=COLOUR_RGB('',0.509803950786591,0.509803950786591,0.588235318660736);
#270=AXIS2_PLACEMENT_3D('',#386,#387,#388);
#271=PRE_DEFINED_MARKER('');
#272=COLOUR_RGB('',0.509803950786591,0.509803950786591,0.588235318660736);
#273=PRE_DEFINED_MARKER('');
#274=COLOUR_RGB('',0.509803950786591,0.509803950786591,0.588235318660736);
#275=PRE_DEFINED_MARKER('');
#276=COLOUR_RGB('',0.509803950786591,0.509803950786591,0.588235318660736);
#277=PRE_DEFINED_MARKER('');
#278=COLOUR_RGB('',0.509803950786591,0.509803950786591,0.588235318660736);
#279=PRE_DEFINED_MARKER('');
#280=COLOUR_RGB('',0.509803950786591,0.509803950786591,0.588235318660736);
#281=DRAUGHTING_PRE_DEFINED_CURVE_FONT('continuous');
#282=COLOUR_RGB('',0.509803950786591,0.509803950786591,0.588235318660736);
#283=AXIS2_PLACEMENT_3D('',#389,#390,#391);
#284=DRAUGHTING_PRE_DEFINED_CURVE_FONT('continuous');
#285=COLOUR_RGB('',0.509803950786591,0.509803950786591,0.588235318660736);
#286=AXIS2_PLACEMENT_3D('',#392,#393,#394);
#287=DRAUGHTING_PRE_DEFINED_CURVE_FONT('continuous');
#288=COLOUR_RGB('',0.509803950786591,0.509803950786591,0.588235318660736);
#289=CARTESIAN_POINT('',(7.62500000000004,1.34708169704689E-014,3.26180581256679));
#290=VECTOR('',#395,1.0);
#291=DRAUGHTING_PRE_DEFINED_CURVE_FONT('continuous');
#292=COLOUR_RGB('',0.509803950786591,0.509803950786591,0.588235318660736);
#293=CARTESIAN_POINT('',(-5.99999999999997,9.55017789451837E-015,1.1618058125668));
#294=VECTOR('',#396,1.0);
#295=DRAUGHTING_PRE_DEFINED_CURVE_FONT('continuous');
#296=COLOUR_RGB('',0.509803950786591,0.509803950786591,0.588235318660736);
#297=AXIS2_PLACEMENT_3D('',#397,#398,#399);
#298=DRAUGHTING_PRE_DEFINED_CURVE_FONT('continuous');
#299=COLOUR_RGB('',0.509803950786591,0.509803950786591,0.588235318660736);
#300=AXIS2_PLACEMENT_3D('',#400,#401,#402);
#301=PRE_DEFINED_MARKER('');
#302=COLOUR_RGB('',0.509803950786591,0.509803950786591,0.588235318660736);
#303=PRE_DEFINED_MARKER('');
#304=COLOUR_RGB('',0.509803950786591,0.509803950786591,0.588235318660736);
#305=DRAUGHTING_PRE_DEFINED_CURVE_FONT('continuous');
#306=COLOUR_RGB('',0.509803950786591,0.509803950786591,0.588235318660736);
#307=CARTESIAN_POINT('',(6.00000000000003,1.30032178146216E-014,1.1618058125668));
#308=VECTOR('',#403,1.0);
#309=SURFACE_SIDE_STYLE('',(#404));
#310=EDGE_LOOP('',(#405,#406,#407,#408));
#311=AXIS2_PLACEMENT_3D('',#409,#410,#411);
#312=PRE_DEFINED_MARKER('');
#313=COLOUR_RGB('',0.509803950786591,0.509803950786591,0.588235318660736);
#314=SURFACE_SIDE_STYLE('',(#412));
#315=EDGE_LOOP('',(#413,#414,#415,#416));
#316=AXIS2_PLACEMENT_3D('',#417,#418,#419);
#317=SURFACE_SIDE_STYLE('',(#420));
#318=EDGE_LOOP('',(#421,#422,#423,#424));
#319=AXIS2_PLACEMENT_3D('',#425,#426,#427);
#320=DRAUGHTING_PRE_DEFINED_CURVE_FONT('continuous');
#321=COLOUR_RGB('',0.509803950786591,0.509803950786591,0.588235318660736);
#322=AXIS2_PLACEMENT_3D('',#428,#429,#430);
#323=DRAUGHTING_PRE_DEFINED_CURVE_FONT('continuous');
#324=COLOUR_RGB('',0.509803950786591,0.509803950786591,0.588235318660736);
#325=CARTESIAN_POINT('',(10.5000000000001,1.42981077846603E-014,2.09999999999997));
#326=VECTOR('',#431,1.0);
#327=DRAUGHTING_PRE_DEFINED_CURVE_FONT('continuous');
#328=COLOUR_RGB('',0.509803950786591,0.509803950786591,0.588235318660736);
#329=CARTESIAN_POINT('',(-7.62499999999999,9.08257873867106E-015,3.26180581256679));
#330=VECTOR('',#432,1.0);
#332=CARTESIAN_POINT('',(2.8421709430404E-014,1.127669785457E-014,-2.8421709430404E-014));
#333=DIRECTION('',(-0.0,0.0,-1.0));
#334=DIRECTION('',(-1.0,-1.65292691293031E-016,0.0));
#335=SURFACE_STYLE_FILL_AREA(#433);
#336=DIRECTION('',(0.0,0.0,-1.0));
#337=CARTESIAN_POINT('',(2.8421709430404E-014,1.127669785457E-014,-2.8421709430404E-014));
#338=DIRECTION('',(-0.0,0.0,-1.0));
#339=DIRECTION('',(-1.0,-1.65292691293031E-016,0.0));
#340=SURFACE_STYLE_FILL_AREA(#434);
#341=ORIENTED_EDGE('',*,*,#99,.F.);
#342=ORIENTED_EDGE('',*,*,#81,.F.);
#343=ORIENTED_EDGE('',*,*,#85,.T.);
#344=ORIENTED_EDGE('',*,*,#105,.T.);
#345=CARTESIAN_POINT('',(-9.875,1.00673990801704E-014,4.19999999999996));
#346=DIRECTION('',(0.0,0.0,1.0));
#347=DIRECTION('',(-1.0,-1.22460635382238E-016,0.0));
#348=SURFACE_STYLE_FILL_AREA(#435);
#349=ORIENTED_EDGE('',*,*,#65,.F.);
#350=ORIENTED_EDGE('',*,*,#99,.T.);
#351=ORIENTED_EDGE('',*,*,#125,.F.);
#352=ORIENTED_EDGE('',*,*,#83,.F.);
#353=CARTESIAN_POINT('',(2.8421709430404E-014,1.127669785457E-014,2.09999999999997));
#354=DIRECTION('',(0.0,-0.0,1.0));
#355=DIRECTION('',(-1.0,-1.65292691293031E-016,0.0));
#356=SURFACE_STYLE_FILL_AREA(#436);
#357=ORIENTED_EDGE('',*,*,#103,.T.);
#358=ORIENTED_EDGE('',*,*,#59,.T.);
#359=ORIENTED_EDGE('',*,*,#113,.T.);
#360=ORIENTED_EDGE('',*,*,#97,.F.);
#361=CARTESIAN_POINT('',(2.8421709430404E-014,1.127669785457E-014,1.1618058125668));
#362=DIRECTION('',(0.0,-0.0,1.0));
#363=DIRECTION('',(-1.0,-1.65292691293031E-016,0.0));
#364=SURFACE_STYLE_FILL_AREA(#437);
#365=ORIENTED_EDGE('',*,*,#59,.F.);
#366=ORIENTED_EDGE('',*,*,#123,.F.);
#367=ORIENTED_EDGE('',*,*,#83,.T.);
#368=ORIENTED_EDGE('',*,*,#67,.T.);
#369=CARTESIAN_POINT('',(-8.24999999999999,1.00092302783638E-014,-2.8421709430404E-014));
#370=DIRECTION('',(0.0,0.0,-1.0));
#371=DIRECTION('',(1.0,1.22460635382238E-016,0.0));
#372=SURFACE_STYLE_FILL_AREA(#438);
#373=ORIENTED_EDGE('',*,*,#127,.T.);
#374=ORIENTED_EDGE('',*,*,#97,.T.);
#375=ORIENTED_EDGE('',*,*,#101,.T.);
#376=ORIENTED_EDGE('',*,*,#85,.F.);
#377=CARTESIAN_POINT('',(2.8421709430404E-014,1.127669785457E-014,3.26180581256679));
#378=DIRECTION('',(0.0,-0.0,1.0));
#379=DIRECTION('',(-1.0,-1.65292691293031E-016,0.0));
#380=CARTESIAN_POINT('',(2.8421709430404E-014,1.127669785457E-014,4.19999999999996));
#381=DIRECTION('',(-0.0,0.0,-1.0));
#382=DIRECTION('',(-1.0,-1.65292691293031E-016,0.0));
#383=CARTESIAN_POINT('',(2.8421709430404E-014,1.127669785457E-014,-2.8421709430404E-014));
#384=DIRECTION('',(-0.0,0.0,-1.0));
#385=DIRECTION('',(-1.0,-1.65292691293031E-016,0.0));
#386=CARTESIAN_POINT('',(2.8421709430404E-014,1.127669785457E-014,4.19999999999996));
#387=DIRECTION('',(-0.0,0.0,-1.0));
#388=DIRECTION('',(-1.0,-1.65292691293031E-016,0.0));
#389=CARTESIAN_POINT('',(2.8421709430404E-014,1.127669785457E-014,2.32361162513362));
#390=DIRECTION('',(-0.0,0.0,-1.0));
#391=DIRECTION('',(-1.0,-1.65292691293031E-016,0.0));
#392=CARTESIAN_POINT('',(2.8421709430404E-014,1.127669785457E-014,4.19999999999996));
#393=DIRECTION('',(-0.0,0.0,-1.0));
#394=DIRECTION('',(-1.0,-1.65292691293031E-016,0.0));
#395=DIRECTION('',(0.866025403784434,2.49201690924264E-016,0.500000000000008));
#396=DIRECTION('',(0.0,0.0,-1.0));
#397=CARTESIAN_POINT('',(2.8421709430404E-014,1.127669785457E-014,4.19999999999996));
#398=DIRECTION('',(-0.0,0.0,-1.0));
#399=DIRECTION('',(-1.0,-1.65292691293031E-016,0.0));
#400=CARTESIAN_POINT('',(2.8421709430404E-014,1.127669785457E-014,2.32361162513362));
#401=DIRECTION('',(-0.0,0.0,-1.0));
#402=DIRECTION('',(-1.0,-1.65292691293031E-016,0.0));
#403=DIRECTION('',(0.0,0.0,1.0));
#404=SURFACE_STYLE_FILL_AREA(#439);
#405=ORIENTED_EDGE('',*,*,#127,.F.);
#406=ORIENTED_EDGE('',*,*,#105,.F.);
#407=ORIENTED_EDGE('',*,*,#101,.F.);
#408=ORIENTED_EDGE('',*,*,#107,.T.);
#409=CARTESIAN_POINT('',(2.8421709430404E-014,1.127669785457E-014,3.26180581256679));
#410=DIRECTION('',(0.0,-0.0,1.0));
#411=DIRECTION('',(-1.0,-1.65292691293031E-016,0.0));
#412=SURFACE_STYLE_FILL_AREA(#440);
#413=ORIENTED_EDGE('',*,*,#103,.F.);
#414=ORIENTED_EDGE('',*,*,#107,.F.);
#415=ORIENTED_EDGE('',*,*,#113,.F.);
#416=ORIENTED_EDGE('',*,*,#123,.T.);
#417=CARTESIAN_POINT('',(2.8421709430404E-014,1.127669785457E-014,1.1618058125668));
#418=DIRECTION('',(0.0,-0.0,1.0));
#419=DIRECTION('',(-1.0,-1.65292691293031E-016,0.0));
#420=SURFACE_STYLE_FILL_AREA(#441);
#421=ORIENTED_EDGE('',*,*,#65,.T.);
#422=ORIENTED_EDGE('',*,*,#67,.F.);
#423=ORIENTED_EDGE('',*,*,#125,.T.);
#424=ORIENTED_EDGE('',*,*,#81,.T.);
#425=CARTESIAN_POINT('',(2.8421709430404E-014,1.127669785457E-014,2.09999999999997));
#426=DIRECTION('',(0.0,-0.0,1.0));
#427=DIRECTION('',(-1.0,-1.65292691293031E-016,0.0));
#428=CARTESIAN_POINT('',(2.8421709430404E-014,1.127669785457E-014,-2.8421709430404E-014));
#429=DIRECTION('',(-0.0,0.0,-1.0));
#430=DIRECTION('',(-1.0,-1.65292691293031E-016,0.0));
#431=DIRECTION('',(-0.0,-0.0,1.0));
#432=DIRECTION('',(0.866025403784434,2.49201690924264E-016,-0.500000000000008));
#433=FILL_AREA_STYLE('',(#442));
#434=FILL_AREA_STYLE('',(#443));
#435=FILL_AREA_STYLE('',(#444));
#436=FILL_AREA_STYLE('',(#445));
#437=FILL_AREA_STYLE('',(#446));
#438=FILL_AREA_STYLE('',(#447));
#439=FILL_AREA_STYLE('',(#448));
#440=FILL_AREA_STYLE('',(#449));
#441=FILL_AREA_STYLE('',(#450));
#442=FILL_AREA_STYLE_COLOUR('',#451);
#443=FILL_AREA_STYLE_COLOUR('',#452);
#444=FILL_AREA_STYLE_COLOUR('',#453);
#445=FILL_AREA_STYLE_COLOUR('',#454);
#446=FILL_AREA_STYLE_COLOUR('',#455);
#447=FILL_AREA_STYLE_COLOUR('',#456);
#448=FILL_AREA_STYLE_COLOUR('',#457);
#449=FILL_AREA_STYLE_COLOUR('',#458);
#450=FILL_AREA_STYLE_COLOUR('',#459);
#451=COLOUR_RGB('',0.509803950786591,0.509803950786591,0.588235318660736);
#452=COLOUR_RGB('',0.509803950786591,0.509803950786591,0.588235318660736);
#453=COLOUR_RGB('',0.509803950786591,0.509803950786591,0.588235318660736);
#454=COLOUR_RGB('',0.509803950786591,0.509803950786591,0.588235318660736);
#455=COLOUR_RGB('',0.509803950786591,0.509803950786591,0.588235318660736);
#456=COLOUR_RGB('',0.509803950786591,0.509803950786591,0.588235318660736);
#457=COLOUR_RGB('',0.509803950786591,0.509803950786591,0.588235318660736);
#458=COLOUR_RGB('',0.509803950786591,0.509803950786591,0.588235318660736);
#459=COLOUR_RGB('',0.509803950786591,0.509803950786591,0.588235318660736);
ENDSEC;
END-ISO-10303-21;
