ISO-10303-21;
HEADER;
FILE_DESCRIPTION(('STEP AP214'),'1');
FILE_NAME(' ','  ',('TraceParts'),('TraceParts S.A.'),'XStep 1.0',' ',' ');
FILE_SCHEMA(('automotive_design'));
ENDSEC;
DATA;
#1=MECHANICAL_DESIGN_GEOMETRIC_PRESENTATION_REPRESENTATION(' ',(#10,#11,#12,#13,#14,#15,#16,#17,#18,#19,#20,#21,#22,#23,#24,#25,#26,#27,#28,#29,#30,#31,#32,#33,#34,#35,#36,#37,#38,#39,#40,#41,#42,#43,#44),#6);
#2=PRODUCT_DEFINITION_CONTEXT('',#45,'design');
#3=APPLICATION_PROTOCOL_DEFINITION('INTERNATIONAL STANDARD','automotive_design',1994,#45);
#4=PRODUCT_CATEGORY_RELATIONSHIP('NONE','NONE',#46,#47);
#5=SHAPE_DEFINITION_REPRESENTATION(#48,#49);
#6= (GEOMETRIC_REPRESENTATION_CONTEXT(3)GLOBAL_UNCERTAINTY_ASSIGNED_CONTEXT((#52))GLOBAL_UNIT_ASSIGNED_CONTEXT((#54,#55,#56))REPRESENTATION_CONTEXT('NONE','WORKSPACE'));
#10=STYLED_ITEM('',(#58),#59);
#11=STYLED_ITEM('',(#60),#61);
#12=STYLED_ITEM('',(#62),#63);
#13=STYLED_ITEM('',(#64),#65);
#14=STYLED_ITEM('',(#66),#67);
#15=STYLED_ITEM('',(#68),#69);
#16=STYLED_ITEM('',(#70),#71);
#17=STYLED_ITEM('',(#72),#73);
#18=STYLED_ITEM('',(#74),#75);
#19=STYLED_ITEM('',(#76),#77);
#20=STYLED_ITEM('',(#78),#79);
#21=STYLED_ITEM('',(#80),#81);
#22=STYLED_ITEM('',(#82),#83);
#23=STYLED_ITEM('',(#84),#85);
#24=STYLED_ITEM('',(#86),#87);
#25=STYLED_ITEM('',(#88),#89);
#26=STYLED_ITEM('',(#90),#91);
#27=STYLED_ITEM('',(#92),#93);
#28=STYLED_ITEM('',(#94),#95);
#29=STYLED_ITEM('',(#96),#97);
#30=STYLED_ITEM('',(#98),#99);
#31=STYLED_ITEM('',(#100),#101);
#32=STYLED_ITEM('',(#102),#103);
#33=STYLED_ITEM('',(#104),#105);
#34=STYLED_ITEM('',(#106),#107);
#35=STYLED_ITEM('',(#108),#109);
#36=STYLED_ITEM('',(#110),#111);
#37=STYLED_ITEM('',(#112),#113);
#38=STYLED_ITEM('',(#114),#115);
#39=STYLED_ITEM('',(#116),#117);
#40=STYLED_ITEM('',(#118),#119);
#41=STYLED_ITEM('',(#120),#121);
#42=STYLED_ITEM('',(#122),#123);
#43=STYLED_ITEM('',(#124),#125);
#44=STYLED_ITEM('',(#126),#127);
#45=APPLICATION_CONTEXT(' ');
#46=PRODUCT_CATEGORY('part','NONE');
#47=PRODUCT_RELATED_PRODUCT_CATEGORY('detail',' ',(#128));
#48=PRODUCT_DEFINITION_SHAPE('NONE','NONE',#129);
#49=ADVANCED_BREP_SHAPE_REPRESENTATION('1',(#59,#130),#6);
#52=UNCERTAINTY_MEASURE_WITH_UNIT(LENGTH_MEASURE(1.0E-006),#54,'','');
#54= (CONVERSION_BASED_UNIT('MILLIMETRE',#133)LENGTH_UNIT()NAMED_UNIT(#136));
#55= (NAMED_UNIT(#138)PLANE_ANGLE_UNIT()SI_UNIT($,.RADIAN.));
#56= (NAMED_UNIT(#138)SOLID_ANGLE_UNIT()SI_UNIT($,.STERADIAN.));
#58=PRESENTATION_STYLE_ASSIGNMENT((#144));
#59=MANIFOLD_SOLID_BREP('1',#145);
#60=PRESENTATION_STYLE_ASSIGNMENT((#146));
#61=EDGE_CURVE('',#107,#69,#147,.T.);
#62=PRESENTATION_STYLE_ASSIGNMENT((#148));
#63=ADVANCED_FACE('',(#149,#150),#151,.T.);
#64=PRESENTATION_STYLE_ASSIGNMENT((#152));
#65=EDGE_CURVE('',#97,#81,#153,.T.);
#66=PRESENTATION_STYLE_ASSIGNMENT((#154));
#67=ADVANCED_FACE('',(#155),#156,.F.);
#68=PRESENTATION_STYLE_ASSIGNMENT((#157));
#69=VERTEX_POINT('',#158);
#70=PRESENTATION_STYLE_ASSIGNMENT((#159));
#71=EDGE_CURVE('',#85,#117,#160,.T.);
#72=PRESENTATION_STYLE_ASSIGNMENT((#161));
#73=EDGE_CURVE('',#85,#81,#162,.T.);
#74=PRESENTATION_STYLE_ASSIGNMENT((#163));
#75=ADVANCED_FACE('',(#164),#165,.F.);
#76=PRESENTATION_STYLE_ASSIGNMENT((#166));
#77=EDGE_CURVE('',#81,#85,#167,.T.);
#78=PRESENTATION_STYLE_ASSIGNMENT((#168));
#79=EDGE_CURVE('',#117,#97,#169,.T.);
#80=PRESENTATION_STYLE_ASSIGNMENT((#170));
#81=VERTEX_POINT('',#171);
#82=PRESENTATION_STYLE_ASSIGNMENT((#172));
#83=EDGE_CURVE('',#69,#109,#173,.T.);
#84=PRESENTATION_STYLE_ASSIGNMENT((#174));
#85=VERTEX_POINT('',#175);
#86=PRESENTATION_STYLE_ASSIGNMENT((#176));
#87=ADVANCED_FACE('',(#177),#178,.F.);
#88=PRESENTATION_STYLE_ASSIGNMENT((#179));
#89=ADVANCED_FACE('',(#180),#181,.F.);
#90=PRESENTATION_STYLE_ASSIGNMENT((#182));
#91=EDGE_CURVE('',#111,#119,#183,.T.);
#92=PRESENTATION_STYLE_ASSIGNMENT((#184));
#93=EDGE_CURVE('',#103,#109,#185,.T.);
#94=PRESENTATION_STYLE_ASSIGNMENT((#186));
#95=EDGE_CURVE('',#97,#117,#187,.T.);
#96=PRESENTATION_STYLE_ASSIGNMENT((#188));
#97=VERTEX_POINT('',#189);
#98=PRESENTATION_STYLE_ASSIGNMENT((#190));
#99=ADVANCED_FACE('',(#191),#192,.T.);
#100=PRESENTATION_STYLE_ASSIGNMENT((#193));
#101=ADVANCED_FACE('',(#194,#195),#196,.T.);
#102=PRESENTATION_STYLE_ASSIGNMENT((#197));
#103=VERTEX_POINT('',#198);
#104=PRESENTATION_STYLE_ASSIGNMENT((#199));
#105=EDGE_CURVE('',#109,#119,#200,.T.);
#106=PRESENTATION_STYLE_ASSIGNMENT((#201));
#107=VERTEX_POINT('',#202);
#108=PRESENTATION_STYLE_ASSIGNMENT((#203));
#109=VERTEX_POINT('',#204);
#110=PRESENTATION_STYLE_ASSIGNMENT((#205));
#111=VERTEX_POINT('',#206);
#112=PRESENTATION_STYLE_ASSIGNMENT((#207));
#113=EDGE_CURVE('',#103,#107,#208,.T.);
#114=PRESENTATION_STYLE_ASSIGNMENT((#209));
#115=EDGE_CURVE('',#69,#107,#210,.T.);
#116=PRESENTATION_STYLE_ASSIGNMENT((#211));
#117=VERTEX_POINT('',#212);
#118=PRESENTATION_STYLE_ASSIGNMENT((#213));
#119=VERTEX_POINT('',#214);
#120=PRESENTATION_STYLE_ASSIGNMENT((#215));
#121=EDGE_CURVE('',#119,#111,#216,.T.);
#122=PRESENTATION_STYLE_ASSIGNMENT((#217));
#123=EDGE_CURVE('',#111,#103,#218,.T.);
#124=PRESENTATION_STYLE_ASSIGNMENT((#219));
#125=ADVANCED_FACE('',(#220),#221,.T.);
#126=PRESENTATION_STYLE_ASSIGNMENT((#222));
#127=EDGE_CURVE('',#109,#103,#223,.T.);
#128=PRODUCT('1','1','PART-1-DESC',(#224));
#129=PRODUCT_DEFINITION('NONE','NONE',#225,#2);
#130=AXIS2_PLACEMENT_3D('',#226,#227,#228);
#133=LENGTH_MEASURE_WITH_UNIT(LENGTH_MEASURE(1.0),#229);
#136=DIMENSIONAL_EXPONENTS(1.0,0.0,0.0,0.0,0.0,0.0,0.0);
#138=DIMENSIONAL_EXPONENTS(0.0,0.0,0.0,0.0,0.0,0.0,0.0);
#144=SURFACE_STYLE_USAGE(.BOTH.,#230);
#145=CLOSED_SHELL('',(#89,#99,#87,#75,#101,#125,#63,#67));
#146=CURVE_STYLE('',#231,POSITIVE_LENGTH_MEASURE(1.0E-006),#232);
#147=CIRCLE('',#233,14.0);
#148=SURFACE_STYLE_USAGE(.BOTH.,#234);
#149=FACE_BOUND('',#235,.T.);
#150=FACE_OUTER_BOUND('',#236,.T.);
#151=PLANE('',#237);
#152=CURVE_STYLE('',#238,POSITIVE_LENGTH_MEASURE(1.0E-006),#239);
#153=LINE('',#240,#241);
#154=SURFACE_STYLE_USAGE(.BOTH.,#242);
#155=FACE_OUTER_BOUND('',#243,.T.);
#156=CYLINDRICAL_SURFACE('',#244,14.0);
#157=POINT_STYLE(' ',#245,POSITIVE_LENGTH_MEASURE(1.0E-006),#246);
#158=CARTESIAN_POINT('',(14.0,1.65340032091464E-014,-2.8421709430404E-014));
#159=CURVE_STYLE('',#247,POSITIVE_LENGTH_MEASURE(1.0E-006),#248);
#160=LINE('',#249,#250);
#161=CURVE_STYLE('',#251,POSITIVE_LENGTH_MEASURE(1.0E-006),#252);
#162=CIRCLE('',#253,30.0000000000001);
#163=SURFACE_STYLE_USAGE(.BOTH.,#254);
#164=FACE_OUTER_BOUND('',#255,.T.);
#165=CONICAL_SURFACE('',#256,16.25,1.0471975511966);
#166=CURVE_STYLE('',#257,POSITIVE_LENGTH_MEASURE(1.0E-006),#258);
#167=CIRCLE('',#259,30.0000000000001);
#168=CURVE_STYLE('',#260,POSITIVE_LENGTH_MEASURE(1.0E-006),#261);
#169=CIRCLE('',#262,30.0000000000001);
#170=POINT_STYLE(' ',#263,POSITIVE_LENGTH_MEASURE(1.0E-006),#264);
#171=CARTESIAN_POINT('',(-30.0000000000001,8.2072374663927E-015,-2.8421709430404E-014));
#172=CURVE_STYLE('',#265,POSITIVE_LENGTH_MEASURE(1.0E-006),#266);
#173=LINE('',#267,#268);
#174=POINT_STYLE(' ',#269,POSITIVE_LENGTH_MEASURE(1.0E-006),#270);
#175=CARTESIAN_POINT('',(30.0000000000001,2.11518814998611E-014,-2.8421709430404E-014));
#176=SURFACE_STYLE_USAGE(.BOTH.,#271);
#177=FACE_OUTER_BOUND('',#272,.T.);
#178=CONICAL_SURFACE('',#273,16.25,1.0471975511966);
#179=SURFACE_STYLE_USAGE(.BOTH.,#274);
#180=FACE_OUTER_BOUND('',#275,.T.);
#181=CYLINDRICAL_SURFACE('',#276,14.0);
#182=CURVE_STYLE('',#277,POSITIVE_LENGTH_MEASURE(1.0E-006),#278);
#183=CIRCLE('',#279,18.5000000000001);
#184=CURVE_STYLE('',#280,POSITIVE_LENGTH_MEASURE(1.0E-006),#281);
#185=CIRCLE('',#282,14.0);
#186=CURVE_STYLE('',#283,POSITIVE_LENGTH_MEASURE(1.0E-006),#284);
#187=CIRCLE('',#285,30.0000000000001);
#188=POINT_STYLE(' ',#286,POSITIVE_LENGTH_MEASURE(1.0E-006),#287);
#189=CARTESIAN_POINT('',(-30.0000000000001,8.81954064330389E-015,9.99999999999997));
#190=SURFACE_STYLE_USAGE(.BOTH.,#288);
#191=FACE_OUTER_BOUND('',#289,.T.);
#192=CYLINDRICAL_SURFACE('',#290,30.0000000000001);
#193=SURFACE_STYLE_USAGE(.BOTH.,#291);
#194=FACE_OUTER_BOUND('',#292,.T.);
#195=FACE_BOUND('',#293,.T.);
#196=PLANE('',#294);
#197=POINT_STYLE(' ',#295,POSITIVE_LENGTH_MEASURE(1.0E-006),#296);
#198=CARTESIAN_POINT('',(-14.0,1.06198297776128E-014,7.40192378864666));
#199=CURVE_STYLE('',#297,POSITIVE_LENGTH_MEASURE(1.0E-006),#298);
#200=LINE('',#299,#300);
#201=POINT_STYLE(' ',#301,POSITIVE_LENGTH_MEASURE(1.0E-006),#302);
#202=CARTESIAN_POINT('',(-14.0,1.01666076325085E-014,-2.8421709430404E-014));
#203=POINT_STYLE(' ',#303,POSITIVE_LENGTH_MEASURE(1.0E-006),#304);
#204=CARTESIAN_POINT('',(14.0,1.65340032091464E-014,7.40192378864666));
#205=POINT_STYLE(' ',#305,POSITIVE_LENGTH_MEASURE(1.0E-006),#306);
#206=CARTESIAN_POINT('',(-18.5000000000001,1.02278379501996E-014,9.99999999999997));
#207=CURVE_STYLE('',#307,POSITIVE_LENGTH_MEASURE(1.0E-006),#308);
#208=LINE('',#309,#310);
#209=CURVE_STYLE('',#311,POSITIVE_LENGTH_MEASURE(1.0E-006),#312);
#210=CIRCLE('',#313,14.0);
#211=POINT_STYLE(' ',#314,POSITIVE_LENGTH_MEASURE(1.0E-006),#315);
#212=CARTESIAN_POINT('',(30.0000000000001,2.11518814998611E-014,9.99999999999997));
#213=POINT_STYLE(' ',#316,POSITIVE_LENGTH_MEASURE(1.0E-006),#317);
#214=CARTESIAN_POINT('',(18.5000000000001,1.78327814784099E-014,9.99999999999997));
#215=CURVE_STYLE('',#318,POSITIVE_LENGTH_MEASURE(1.0E-006),#319);
#216=CIRCLE('',#320,18.5000000000001);
#217=CURVE_STYLE('',#321,POSITIVE_LENGTH_MEASURE(1.0E-006),#322);
#218=LINE('',#323,#324);
#219=SURFACE_STYLE_USAGE(.BOTH.,#325);
#220=FACE_OUTER_BOUND('',#326,.T.);
#221=CYLINDRICAL_SURFACE('',#327,30.0000000000001);
#222=CURVE_STYLE('',#328,POSITIVE_LENGTH_MEASURE(1.0E-006),#329);
#223=CIRCLE('',#330,14.0);
#224=PRODUCT_CONTEXT('',#45,'mechanical');
#225=PRODUCT_DEFINITION_FORMATION_WITH_SPECIFIED_SOURCE(' ','NONE',#128,.NOT_KNOWN.);
#226=CARTESIAN_POINT('',(0.0,0.0,0.0));
#227=DIRECTION('',(0.0,0.0,1.0));
#228=DIRECTION('',(1.0,0.0,0.0));
#229= (NAMED_UNIT(#136)LENGTH_UNIT()SI_UNIT(.MILLI.,.METRE.));
#230=SURFACE_SIDE_STYLE('',(#332));
#231=DRAUGHTING_PRE_DEFINED_CURVE_FONT('continuous');
#232=COLOUR_RGB('',0.509803950786591,0.509803950786591,0.588235318660736);
#233=AXIS2_PLACEMENT_3D('',#333,#334,#335);
#234=SURFACE_SIDE_STYLE('',(#336));
#235=EDGE_LOOP('',(#337,#338));
#236=EDGE_LOOP('',(#339,#340));
#237=AXIS2_PLACEMENT_3D('',#341,#342,#343);
#238=DRAUGHTING_PRE_DEFINED_CURVE_FONT('continuous');
#239=COLOUR_RGB('',0.509803950786591,0.509803950786591,0.588235318660736);
#240=CARTESIAN_POINT('',(-30.0000000000001,3.83483790968094E-015,4.99999999999997));
#241=VECTOR('',#344,1.0);
#242=SURFACE_SIDE_STYLE('',(#345));
#243=EDGE_LOOP('',(#346,#347,#348,#349));
#244=AXIS2_PLACEMENT_3D('',#350,#351,#352);
#245=PRE_DEFINED_MARKER('');
#246=COLOUR_RGB('',0.509803950786591,0.509803950786591,0.588235318660736);
#247=DRAUGHTING_PRE_DEFINED_CURVE_FONT('continuous');
#248=COLOUR_RGB('',0.509803950786591,0.509803950786591,0.588235318660736);
#249=CARTESIAN_POINT('',(30.0000000000001,2.11518814998611E-014,4.99999999999997));
#250=VECTOR('',#353,1.0);
#251=DRAUGHTING_PRE_DEFINED_CURVE_FONT('continuous');
#252=COLOUR_RGB('',0.509803950786591,0.509803950786591,0.588235318660736);
#253=AXIS2_PLACEMENT_3D('',#354,#355,#356);
#254=SURFACE_SIDE_STYLE('',(#357));
#255=EDGE_LOOP('',(#358,#359,#360,#361));
#256=AXIS2_PLACEMENT_3D('',#362,#363,#364);
#257=DRAUGHTING_PRE_DEFINED_CURVE_FONT('continuous');
#258=COLOUR_RGB('',0.509803950786591,0.509803950786591,0.588235318660736);
#259=AXIS2_PLACEMENT_3D('',#365,#366,#367);
#260=DRAUGHTING_PRE_DEFINED_CURVE_FONT('continuous');
#261=COLOUR_RGB('',0.509803950786591,0.509803950786591,0.588235318660736);
#262=AXIS2_PLACEMENT_3D('',#368,#369,#370);
#263=PRE_DEFINED_MARKER('');
#264=COLOUR_RGB('',0.509803950786591,0.509803950786591,0.588235318660736);
#265=DRAUGHTING_PRE_DEFINED_CURVE_FONT('continuous');
#266=COLOUR_RGB('',0.509803950786591,0.509803950786591,0.588235318660736);
#267=CARTESIAN_POINT('',(14.0,1.65340032091464E-014,3.70096189432331));
#268=VECTOR('',#371,1.0);
#269=PRE_DEFINED_MARKER('');
#270=COLOUR_RGB('',0.509803950786591,0.509803950786591,0.588235318660736);
#271=SURFACE_SIDE_STYLE('',(#372));
#272=EDGE_LOOP('',(#373,#374,#375,#376));
#273=AXIS2_PLACEMENT_3D('',#377,#378,#379);
#274=SURFACE_SIDE_STYLE('',(#380));
#275=EDGE_LOOP('',(#381,#382,#383,#384));
#276=AXIS2_PLACEMENT_3D('',#385,#386,#387);
#277=DRAUGHTING_PRE_DEFINED_CURVE_FONT('continuous');
#278=COLOUR_RGB('',0.509803950786591,0.509803950786591,0.588235318660736);
#279=AXIS2_PLACEMENT_3D('',#388,#389,#390);
#280=DRAUGHTING_PRE_DEFINED_CURVE_FONT('continuous');
#281=COLOUR_RGB('',0.509803950786591,0.509803950786591,0.588235318660736);
#282=AXIS2_PLACEMENT_3D('',#391,#392,#393);
#283=DRAUGHTING_PRE_DEFINED_CURVE_FONT('continuous');
#284=COLOUR_RGB('',0.509803950786591,0.509803950786591,0.588235318660736);
#285=AXIS2_PLACEMENT_3D('',#394,#395,#396);
#286=PRE_DEFINED_MARKER('');
#287=COLOUR_RGB('',0.509803950786591,0.509803950786591,0.588235318660736);
#288=SURFACE_SIDE_STYLE('',(#397));
#289=EDGE_LOOP('',(#398,#399,#400,#401));
#290=AXIS2_PLACEMENT_3D('',#402,#403,#404);
#291=SURFACE_SIDE_STYLE('',(#405));
#292=EDGE_LOOP('',(#406,#407));
#293=EDGE_LOOP('',(#408,#409));
#294=AXIS2_PLACEMENT_3D('',#410,#411,#412);
#295=PRE_DEFINED_MARKER('');
#296=COLOUR_RGB('',0.509803950786591,0.509803950786591,0.588235318660736);
#297=DRAUGHTING_PRE_DEFINED_CURVE_FONT('continuous');
#298=COLOUR_RGB('',0.509803950786591,0.509803950786591,0.588235318660736);
#299=CARTESIAN_POINT('',(16.25,1.71833923437782E-014,8.70096189432331));
#300=VECTOR('',#413,1.0);
#301=PRE_DEFINED_MARKER('');
#302=COLOUR_RGB('',0.509803950786591,0.509803950786591,0.588235318660736);
#303=PRE_DEFINED_MARKER('');
#304=COLOUR_RGB('',0.509803950786591,0.509803950786591,0.588235318660736);
#305=PRE_DEFINED_MARKER('');
#306=COLOUR_RGB('',0.509803950786591,0.509803950786591,0.588235318660736);
#307=DRAUGHTING_PRE_DEFINED_CURVE_FONT('continuous');
#308=COLOUR_RGB('',0.509803950786591,0.509803950786591,0.588235318660736);
#309=CARTESIAN_POINT('',(-14.0,8.45271620039566E-015,3.70096189432331));
#310=VECTOR('',#414,1.0);
#311=DRAUGHTING_PRE_DEFINED_CURVE_FONT('continuous');
#312=COLOUR_RGB('',0.509803950786591,0.509803950786591,0.588235318660736);
#313=AXIS2_PLACEMENT_3D('',#415,#416,#417);
#314=PRE_DEFINED_MARKER('');
#315=COLOUR_RGB('',0.509803950786591,0.509803950786591,0.588235318660736);
#316=PRE_DEFINED_MARKER('');
#317=COLOUR_RGB('',0.509803950786591,0.509803950786591,0.588235318660736);
#318=DRAUGHTING_PRE_DEFINED_CURVE_FONT('continuous');
#319=COLOUR_RGB('',0.509803950786591,0.509803950786591,0.588235318660736);
#320=AXIS2_PLACEMENT_3D('',#418,#419,#420);
#321=DRAUGHTING_PRE_DEFINED_CURVE_FONT('continuous');
#322=COLOUR_RGB('',0.509803950786591,0.509803950786591,0.588235318660736);
#323=CARTESIAN_POINT('',(-16.25,7.80332706576389E-015,8.70096189432331));
#324=VECTOR('',#421,1.0);
#325=SURFACE_SIDE_STYLE('',(#422));
#326=EDGE_LOOP('',(#423,#424,#425,#426));
#327=AXIS2_PLACEMENT_3D('',#427,#428,#429);
#328=DRAUGHTING_PRE_DEFINED_CURVE_FONT('continuous');
#329=COLOUR_RGB('',0.509803950786591,0.509803950786591,0.588235318660736);
#330=AXIS2_PLACEMENT_3D('',#430,#431,#432);
#332=SURFACE_STYLE_FILL_AREA(#433);
#333=CARTESIAN_POINT('',(0.0,1.2493359704771E-014,-2.8421709430404E-014));
#334=DIRECTION('',(-0.0,0.0,-1.0));
#335=DIRECTION('',(-1.0,-1.66156757787431E-016,0.0));
#336=SURFACE_STYLE_FILL_AREA(#434);
#337=ORIENTED_EDGE('',*,*,#61,.F.);
#338=ORIENTED_EDGE('',*,*,#115,.F.);
#339=ORIENTED_EDGE('',*,*,#77,.T.);
#340=ORIENTED_EDGE('',*,*,#73,.T.);
#341=CARTESIAN_POINT('',(-22.0,9.1869225494506E-015,-2.8421709430404E-014));
#342=DIRECTION('',(0.0,0.0,-1.0));
#343=DIRECTION('',(1.0,1.22460635382238E-016,0.0));
#344=DIRECTION('',(0.0,0.0,-1.0));
#345=SURFACE_STYLE_FILL_AREA(#435);
#346=ORIENTED_EDGE('',*,*,#113,.T.);
#347=ORIENTED_EDGE('',*,*,#61,.T.);
#348=ORIENTED_EDGE('',*,*,#83,.T.);
#349=ORIENTED_EDGE('',*,*,#93,.F.);
#350=CARTESIAN_POINT('',(0.0,1.2493359704771E-014,3.70096189432331));
#351=DIRECTION('',(0.0,-0.0,1.0));
#352=DIRECTION('',(-1.0,-1.66156757787431E-016,0.0));
#353=DIRECTION('',(-0.0,-0.0,1.0));
#354=CARTESIAN_POINT('',(0.0,1.2493359704771E-014,-2.8421709430404E-014));
#355=DIRECTION('',(-0.0,0.0,-1.0));
#356=DIRECTION('',(-1.0,-1.66156757787431E-016,0.0));
#357=SURFACE_STYLE_FILL_AREA(#436);
#358=ORIENTED_EDGE('',*,*,#123,.T.);
#359=ORIENTED_EDGE('',*,*,#93,.T.);
#360=ORIENTED_EDGE('',*,*,#105,.T.);
#361=ORIENTED_EDGE('',*,*,#91,.F.);
#362=CARTESIAN_POINT('',(0.0,1.2493359704771E-014,8.70096189432331));
#363=DIRECTION('',(0.0,-0.0,1.0));
#364=DIRECTION('',(-1.0,-1.66156757787431E-016,0.0));
#365=CARTESIAN_POINT('',(0.0,1.2493359704771E-014,-2.8421709430404E-014));
#366=DIRECTION('',(-0.0,0.0,-1.0));
#367=DIRECTION('',(-1.0,-1.66156757787431E-016,0.0));
#368=CARTESIAN_POINT('',(0.0,1.2493359704771E-014,9.99999999999997));
#369=DIRECTION('',(-0.0,0.0,-1.0));
#370=DIRECTION('',(-1.0,-1.66156757787431E-016,0.0));
#371=DIRECTION('',(0.0,0.0,1.0));
#372=SURFACE_STYLE_FILL_AREA(#437);
#373=ORIENTED_EDGE('',*,*,#123,.F.);
#374=ORIENTED_EDGE('',*,*,#121,.F.);
#375=ORIENTED_EDGE('',*,*,#105,.F.);
#376=ORIENTED_EDGE('',*,*,#127,.T.);
#377=CARTESIAN_POINT('',(0.0,1.2493359704771E-014,8.70096189432331));
#378=DIRECTION('',(0.0,-0.0,1.0));
#379=DIRECTION('',(-1.0,-1.66156757787431E-016,0.0));
#380=SURFACE_STYLE_FILL_AREA(#438);
#381=ORIENTED_EDGE('',*,*,#113,.F.);
#382=ORIENTED_EDGE('',*,*,#127,.F.);
#383=ORIENTED_EDGE('',*,*,#83,.F.);
#384=ORIENTED_EDGE('',*,*,#115,.T.);
#385=CARTESIAN_POINT('',(0.0,1.2493359704771E-014,3.70096189432331));
#386=DIRECTION('',(0.0,-0.0,1.0));
#387=DIRECTION('',(-1.0,-1.66156757787431E-016,0.0));
#388=CARTESIAN_POINT('',(0.0,1.2493359704771E-014,9.99999999999997));
#389=DIRECTION('',(-0.0,0.0,-1.0));
#390=DIRECTION('',(-1.0,-1.66156757787431E-016,0.0));
#391=CARTESIAN_POINT('',(0.0,1.2493359704771E-014,7.40192378864666));
#392=DIRECTION('',(-0.0,0.0,-1.0));
#393=DIRECTION('',(-1.0,-1.66156757787431E-016,0.0));
#394=CARTESIAN_POINT('',(0.0,1.2493359704771E-014,9.99999999999997));
#395=DIRECTION('',(-0.0,0.0,-1.0));
#396=DIRECTION('',(-1.0,-1.66156757787431E-016,0.0));
#397=SURFACE_STYLE_FILL_AREA(#439);
#398=ORIENTED_EDGE('',*,*,#65,.F.);
#399=ORIENTED_EDGE('',*,*,#95,.T.);
#400=ORIENTED_EDGE('',*,*,#71,.F.);
#401=ORIENTED_EDGE('',*,*,#77,.F.);
#402=CARTESIAN_POINT('',(0.0,1.2493359704771E-014,4.99999999999997));
#403=DIRECTION('',(0.0,-0.0,1.0));
#404=DIRECTION('',(-1.0,-1.66156757787431E-016,0.0));
#405=SURFACE_STYLE_FILL_AREA(#440);
#406=ORIENTED_EDGE('',*,*,#95,.F.);
#407=ORIENTED_EDGE('',*,*,#79,.F.);
#408=ORIENTED_EDGE('',*,*,#91,.T.);
#409=ORIENTED_EDGE('',*,*,#121,.T.);
#410=CARTESIAN_POINT('',(-24.2500000000001,9.52368929675175E-015,9.99999999999997));
#411=DIRECTION('',(0.0,0.0,1.0));
#412=DIRECTION('',(-1.0,-1.22460635382238E-016,0.0));
#413=DIRECTION('',(0.866025403784441,2.49949994458976E-016,0.499999999999995));
#414=DIRECTION('',(0.0,0.0,-1.0));
#415=CARTESIAN_POINT('',(0.0,1.2493359704771E-014,-2.8421709430404E-014));
#416=DIRECTION('',(-0.0,0.0,-1.0));
#417=DIRECTION('',(-1.0,-1.66156757787431E-016,0.0));
#418=CARTESIAN_POINT('',(0.0,1.2493359704771E-014,9.99999999999997));
#419=DIRECTION('',(-0.0,0.0,-1.0));
#420=DIRECTION('',(-1.0,-1.66156757787431E-016,0.0));
#421=DIRECTION('',(0.866025403784441,2.49949994458976E-016,-0.499999999999995));
#422=SURFACE_STYLE_FILL_AREA(#441);
#423=ORIENTED_EDGE('',*,*,#65,.T.);
#424=ORIENTED_EDGE('',*,*,#73,.F.);
#425=ORIENTED_EDGE('',*,*,#71,.T.);
#426=ORIENTED_EDGE('',*,*,#79,.T.);
#427=CARTESIAN_POINT('',(0.0,1.2493359704771E-014,4.99999999999997));
#428=DIRECTION('',(0.0,-0.0,1.0));
#429=DIRECTION('',(-1.0,-1.66156757787431E-016,0.0));
#430=CARTESIAN_POINT('',(0.0,1.2493359704771E-014,7.40192378864666));
#431=DIRECTION('',(-0.0,0.0,-1.0));
#432=DIRECTION('',(-1.0,-1.66156757787431E-016,0.0));
#433=FILL_AREA_STYLE('',(#442));
#434=FILL_AREA_STYLE('',(#443));
#435=FILL_AREA_STYLE('',(#444));
#436=FILL_AREA_STYLE('',(#445));
#437=FILL_AREA_STYLE('',(#446));
#438=FILL_AREA_STYLE('',(#447));
#439=FILL_AREA_STYLE('',(#448));
#440=FILL_AREA_STYLE('',(#449));
#441=FILL_AREA_STYLE('',(#450));
#442=FILL_AREA_STYLE_COLOUR('',#451);
#443=FILL_AREA_STYLE_COLOUR('',#452);
#444=FILL_AREA_STYLE_COLOUR('',#453);
#445=FILL_AREA_STYLE_COLOUR('',#454);
#446=FILL_AREA_STYLE_COLOUR('',#455);
#447=FILL_AREA_STYLE_COLOUR('',#456);
#448=FILL_AREA_STYLE_COLOUR('',#457);
#449=FILL_AREA_STYLE_COLOUR('',#458);
#450=FILL_AREA_STYLE_COLOUR('',#459);
#451=COLOUR_RGB('',0.509803950786591,0.509803950786591,0.588235318660736);
#452=COLOUR_RGB('',0.509803950786591,0.509803950786591,0.588235318660736);
#453=COLOUR_RGB('',0.509803950786591,0.509803950786591,0.588235318660736);
#454=COLOUR_RGB('',0.509803950786591,0.509803950786591,0.588235318660736);
#455=COLOUR_RGB('',0.509803950786591,0.509803950786591,0.588235318660736);
#456=COLOUR_RGB('',0.509803950786591,0.509803950786591,0.588235318660736);
#457=COLOUR_RGB('',0.509803950786591,0.509803950786591,0.588235318660736);
#458=COLOUR_RGB('',0.509803950786591,0.509803950786591,0.588235318660736);
#459=COLOUR_RGB('',0.509803950786591,0.509803950786591,0.588235318660736);
ENDSEC;
END-ISO-10303-21;
