ISO-10303-21;
HEADER;
FILE_DESCRIPTION(('STEP AP214'),'1');
FILE_NAME(' ','  ',('TraceParts'),('TraceParts S.A.'),'XStep 1.0',' ',' ');
FILE_SCHEMA(('automotive_design'));
ENDSEC;
DATA;
#1=MECHANICAL_DESIGN_GEOMETRIC_PRESENTATION_REPRESENTATION(' ',(#10,#11,#12,#13,#14,#15,#16,#17,#18,#19,#20,#21,#22,#23,#24,#25,#26,#27,#28,#29,#30,#31,#32,#33,#34,#35,#36,#37,#38,#39,#40,#41,#42,#43,#44),#6);
#2=PRODUCT_DEFINITION_CONTEXT('',#45,'design');
#3=APPLICATION_PROTOCOL_DEFINITION('INTERNATIONAL STANDARD','automotive_design',1994,#45);
#4=PRODUCT_CATEGORY_RELATIONSHIP('NONE','NONE',#46,#47);
#5=SHAPE_DEFINITION_REPRESENTATION(#48,#49);
#6= (GEOMETRIC_REPRESENTATION_CONTEXT(3)GLOBAL_UNCERTAINTY_ASSIGNED_CONTEXT((#52))GLOBAL_UNIT_ASSIGNED_CONTEXT((#54,#55,#56))REPRESENTATION_CONTEXT('NONE','WORKSPACE'));
#10=STYLED_ITEM('',(#58),#59);
#11=STYLED_ITEM('',(#60),#61);
#12=STYLED_ITEM('',(#62),#63);
#13=STYLED_ITEM('',(#64),#65);
#14=STYLED_ITEM('',(#66),#67);
#15=STYLED_ITEM('',(#68),#69);
#16=STYLED_ITEM('',(#70),#71);
#17=STYLED_ITEM('',(#72),#73);
#18=STYLED_ITEM('',(#74),#75);
#19=STYLED_ITEM('',(#76),#77);
#20=STYLED_ITEM('',(#78),#79);
#21=STYLED_ITEM('',(#80),#81);
#22=STYLED_ITEM('',(#82),#83);
#23=STYLED_ITEM('',(#84),#85);
#24=STYLED_ITEM('',(#86),#87);
#25=STYLED_ITEM('',(#88),#89);
#26=STYLED_ITEM('',(#90),#91);
#27=STYLED_ITEM('',(#92),#93);
#28=STYLED_ITEM('',(#94),#95);
#29=STYLED_ITEM('',(#96),#97);
#30=STYLED_ITEM('',(#98),#99);
#31=STYLED_ITEM('',(#100),#101);
#32=STYLED_ITEM('',(#102),#103);
#33=STYLED_ITEM('',(#104),#105);
#34=STYLED_ITEM('',(#106),#107);
#35=STYLED_ITEM('',(#108),#109);
#36=STYLED_ITEM('',(#110),#111);
#37=STYLED_ITEM('',(#112),#113);
#38=STYLED_ITEM('',(#114),#115);
#39=STYLED_ITEM('',(#116),#117);
#40=STYLED_ITEM('',(#118),#119);
#41=STYLED_ITEM('',(#120),#121);
#42=STYLED_ITEM('',(#122),#123);
#43=STYLED_ITEM('',(#124),#125);
#44=STYLED_ITEM('',(#126),#127);
#45=APPLICATION_CONTEXT(' ');
#46=PRODUCT_CATEGORY('part','NONE');
#47=PRODUCT_RELATED_PRODUCT_CATEGORY('detail',' ',(#128));
#48=PRODUCT_DEFINITION_SHAPE('NONE','NONE',#129);
#49=ADVANCED_BREP_SHAPE_REPRESENTATION('1',(#65,#130),#6);
#52=UNCERTAINTY_MEASURE_WITH_UNIT(LENGTH_MEASURE(1.0E-006),#54,'','');
#54= (CONVERSION_BASED_UNIT('MILLIMETRE',#133)LENGTH_UNIT()NAMED_UNIT(#136));
#55= (NAMED_UNIT(#138)PLANE_ANGLE_UNIT()SI_UNIT($,.RADIAN.));
#56= (NAMED_UNIT(#138)SOLID_ANGLE_UNIT()SI_UNIT($,.STERADIAN.));
#58=PRESENTATION_STYLE_ASSIGNMENT((#144));
#59=ADVANCED_FACE('',(#145),#146,.T.);
#60=PRESENTATION_STYLE_ASSIGNMENT((#147));
#61=EDGE_CURVE('',#73,#111,#148,.T.);
#62=PRESENTATION_STYLE_ASSIGNMENT((#149));
#63=EDGE_CURVE('',#91,#93,#150,.T.);
#64=PRESENTATION_STYLE_ASSIGNMENT((#151));
#65=MANIFOLD_SOLID_BREP('1',#152);
#66=PRESENTATION_STYLE_ASSIGNMENT((#153));
#67=VERTEX_POINT('',#154);
#68=PRESENTATION_STYLE_ASSIGNMENT((#155));
#69=EDGE_CURVE('',#93,#91,#156,.T.);
#70=PRESENTATION_STYLE_ASSIGNMENT((#157));
#71=EDGE_CURVE('',#117,#103,#158,.T.);
#72=PRESENTATION_STYLE_ASSIGNMENT((#159));
#73=VERTEX_POINT('',#160);
#74=PRESENTATION_STYLE_ASSIGNMENT((#161));
#75=ADVANCED_FACE('',(#162,#163),#164,.T.);
#76=PRESENTATION_STYLE_ASSIGNMENT((#165));
#77=EDGE_CURVE('',#67,#73,#166,.T.);
#78=PRESENTATION_STYLE_ASSIGNMENT((#167));
#79=EDGE_CURVE('',#121,#115,#168,.T.);
#80=PRESENTATION_STYLE_ASSIGNMENT((#169));
#81=ADVANCED_FACE('',(#170),#171,.F.);
#82=PRESENTATION_STYLE_ASSIGNMENT((#172));
#83=EDGE_CURVE('',#111,#89,#173,.T.);
#84=PRESENTATION_STYLE_ASSIGNMENT((#174));
#85=EDGE_CURVE('',#67,#89,#175,.T.);
#86=PRESENTATION_STYLE_ASSIGNMENT((#176));
#87=EDGE_CURVE('',#91,#117,#177,.T.);
#88=PRESENTATION_STYLE_ASSIGNMENT((#178));
#89=VERTEX_POINT('',#179);
#90=PRESENTATION_STYLE_ASSIGNMENT((#180));
#91=VERTEX_POINT('',#181);
#92=PRESENTATION_STYLE_ASSIGNMENT((#182));
#93=VERTEX_POINT('',#183);
#94=PRESENTATION_STYLE_ASSIGNMENT((#184));
#95=EDGE_CURVE('',#89,#115,#185,.T.);
#96=PRESENTATION_STYLE_ASSIGNMENT((#186));
#97=EDGE_CURVE('',#111,#73,#187,.T.);
#98=PRESENTATION_STYLE_ASSIGNMENT((#188));
#99=EDGE_CURVE('',#115,#121,#189,.T.);
#100=PRESENTATION_STYLE_ASSIGNMENT((#190));
#101=ADVANCED_FACE('',(#191,#192),#193,.T.);
#102=PRESENTATION_STYLE_ASSIGNMENT((#194));
#103=VERTEX_POINT('',#195);
#104=PRESENTATION_STYLE_ASSIGNMENT((#196));
#105=ADVANCED_FACE('',(#197),#198,.F.);
#106=PRESENTATION_STYLE_ASSIGNMENT((#199));
#107=EDGE_CURVE('',#103,#117,#200,.T.);
#108=PRESENTATION_STYLE_ASSIGNMENT((#201));
#109=EDGE_CURVE('',#89,#67,#202,.T.);
#110=PRESENTATION_STYLE_ASSIGNMENT((#203));
#111=VERTEX_POINT('',#204);
#112=PRESENTATION_STYLE_ASSIGNMENT((#205));
#113=ADVANCED_FACE('',(#206),#207,.F.);
#114=PRESENTATION_STYLE_ASSIGNMENT((#208));
#115=VERTEX_POINT('',#209);
#116=PRESENTATION_STYLE_ASSIGNMENT((#210));
#117=VERTEX_POINT('',#211);
#118=PRESENTATION_STYLE_ASSIGNMENT((#212));
#119=EDGE_CURVE('',#121,#67,#213,.T.);
#120=PRESENTATION_STYLE_ASSIGNMENT((#214));
#121=VERTEX_POINT('',#215);
#122=PRESENTATION_STYLE_ASSIGNMENT((#216));
#123=EDGE_CURVE('',#103,#93,#217,.T.);
#124=PRESENTATION_STYLE_ASSIGNMENT((#218));
#125=ADVANCED_FACE('',(#219),#220,.T.);
#126=PRESENTATION_STYLE_ASSIGNMENT((#221));
#127=ADVANCED_FACE('',(#222),#223,.F.);
#128=PRODUCT('1','1','PART-1-DESC',(#224));
#129=PRODUCT_DEFINITION('NONE','NONE',#225,#2);
#130=AXIS2_PLACEMENT_3D('',#226,#227,#228);
#133=LENGTH_MEASURE_WITH_UNIT(LENGTH_MEASURE(1.0),#229);
#136=DIMENSIONAL_EXPONENTS(1.0,0.0,0.0,0.0,0.0,0.0,0.0);
#138=DIMENSIONAL_EXPONENTS(0.0,0.0,0.0,0.0,0.0,0.0,0.0);
#144=SURFACE_STYLE_USAGE(.BOTH.,#230);
#145=FACE_OUTER_BOUND('',#231,.T.);
#146=CYLINDRICAL_SURFACE('',#232,14.9999999999999);
#147=CURVE_STYLE('',#233,POSITIVE_LENGTH_MEASURE(1.0E-006),#234);
#148=CIRCLE('',#235,6.0);
#149=CURVE_STYLE('',#236,POSITIVE_LENGTH_MEASURE(1.0E-006),#237);
#150=CIRCLE('',#238,14.9999999999999);
#151=SURFACE_STYLE_USAGE(.BOTH.,#239);
#152=CLOSED_SHELL('',(#127,#125,#81,#113,#75,#59,#101,#105));
#153=POINT_STYLE(' ',#240,POSITIVE_LENGTH_MEASURE(1.0E-006),#241);
#154=CARTESIAN_POINT('',(-6.0,1.12763221300259E-014,3.12361162513369));
#155=CURVE_STYLE('',#242,POSITIVE_LENGTH_MEASURE(1.0E-006),#243);
#156=CIRCLE('',#244,14.9999999999999);
#157=CURVE_STYLE('',#245,POSITIVE_LENGTH_MEASURE(1.0E-006),#246);
#158=CIRCLE('',#247,14.9999999999999);
#159=POINT_STYLE(' ',#248,POSITIVE_LENGTH_MEASURE(1.0E-006),#249);
#160=CARTESIAN_POINT('',(-6.0,1.10850623978753E-014,-2.8421709430404E-014));
#161=SURFACE_STYLE_USAGE(.BOTH.,#250);
#162=FACE_OUTER_BOUND('',#251,.T.);
#163=FACE_BOUND('',#252,.T.);
#164=PLANE('',#253);
#165=CURVE_STYLE('',#254,POSITIVE_LENGTH_MEASURE(1.0E-006),#255);
#166=LINE('',#256,#257);
#167=CURVE_STYLE('',#258,POSITIVE_LENGTH_MEASURE(1.0E-006),#259);
#168=CIRCLE('',#260,9.25000000000006);
#169=SURFACE_STYLE_USAGE(.BOTH.,#261);
#170=FACE_OUTER_BOUND('',#262,.T.);
#171=CONICAL_SURFACE('',#263,7.62500000000003,1.04719755119661);
#172=CURVE_STYLE('',#264,POSITIVE_LENGTH_MEASURE(1.0E-006),#265);
#173=LINE('',#266,#267);
#174=CURVE_STYLE('',#268,POSITIVE_LENGTH_MEASURE(1.0E-006),#269);
#175=CIRCLE('',#270,6.0);
#176=CURVE_STYLE('',#271,POSITIVE_LENGTH_MEASURE(1.0E-006),#272);
#177=LINE('',#273,#274);
#178=POINT_STYLE(' ',#275,POSITIVE_LENGTH_MEASURE(1.0E-006),#276);
#179=CARTESIAN_POINT('',(6.0,1.39014217621962E-014,3.12361162513369));
#180=POINT_STYLE(' ',#277,POSITIVE_LENGTH_MEASURE(1.0E-006),#278);
#181=CARTESIAN_POINT('',(14.9999999999999,1.6564587707554E-014,-2.8421709430404E-014));
#182=POINT_STYLE(' ',#279,POSITIVE_LENGTH_MEASURE(1.0E-006),#280);
#183=CARTESIAN_POINT('',(-14.9999999999999,9.98291667943516E-015,-2.8421709430404E-014));
#184=CURVE_STYLE('',#281,POSITIVE_LENGTH_MEASURE(1.0E-006),#282);
#185=LINE('',#283,#284);
#186=CURVE_STYLE('',#285,POSITIVE_LENGTH_MEASURE(1.0E-006),#286);
#187=CIRCLE('',#287,6.0);
#188=CURVE_STYLE('',#288,POSITIVE_LENGTH_MEASURE(1.0E-006),#289);
#189=CIRCLE('',#290,9.25000000000006);
#190=SURFACE_STYLE_USAGE(.BOTH.,#291);
#191=FACE_BOUND('',#292,.T.);
#192=FACE_OUTER_BOUND('',#293,.T.);
#193=PLANE('',#294);
#194=POINT_STYLE(' ',#295,POSITIVE_LENGTH_MEASURE(1.0E-006),#296);
#195=CARTESIAN_POINT('',(-14.9999999999999,1.02890682678908E-014,4.99999999999997));
#196=SURFACE_STYLE_USAGE(.BOTH.,#297);
#197=FACE_OUTER_BOUND('',#298,.T.);
#198=CYLINDRICAL_SURFACE('',#299,6.0);
#199=CURVE_STYLE('',#300,POSITIVE_LENGTH_MEASURE(1.0E-006),#301);
#200=CIRCLE('',#302,14.9999999999999);
#201=CURVE_STYLE('',#303,POSITIVE_LENGTH_MEASURE(1.0E-006),#304);
#202=CIRCLE('',#305,6.0);
#203=POINT_STYLE(' ',#306,POSITIVE_LENGTH_MEASURE(1.0E-006),#307);
#204=CARTESIAN_POINT('',(6.0,1.39014217621962E-014,-2.8421709430404E-014));
#205=SURFACE_STYLE_USAGE(.BOTH.,#308);
#206=FACE_OUTER_BOUND('',#309,.T.);
#207=CONICAL_SURFACE('',#310,7.62500000000003,1.04719755119661);
#208=POINT_STYLE(' ',#311,POSITIVE_LENGTH_MEASURE(1.0E-006),#312);
#209=CARTESIAN_POINT('',(9.25000000000006,1.48631205757977E-014,4.99999999999997));
#210=POINT_STYLE(' ',#313,POSITIVE_LENGTH_MEASURE(1.0E-006),#314);
#211=CARTESIAN_POINT('',(14.9999999999999,1.6564587707554E-014,4.99999999999997));
#212=CURVE_STYLE('',#315,POSITIVE_LENGTH_MEASURE(1.0E-006),#316);
#213=LINE('',#317,#318);
#214=POINT_STYLE(' ',#319,POSITIVE_LENGTH_MEASURE(1.0E-006),#320);
#215=CARTESIAN_POINT('',(-9.25000000000006,1.09932169213386E-014,4.99999999999997));
#216=CURVE_STYLE('',#321,POSITIVE_LENGTH_MEASURE(1.0E-006),#322);
#217=LINE('',#323,#324);
#218=SURFACE_STYLE_USAGE(.BOTH.,#325);
#219=FACE_OUTER_BOUND('',#326,.T.);
#220=CYLINDRICAL_SURFACE('',#327,14.9999999999999);
#221=SURFACE_STYLE_USAGE(.BOTH.,#328);
#222=FACE_OUTER_BOUND('',#329,.T.);
#223=CYLINDRICAL_SURFACE('',#330,6.0);
#224=PRODUCT_CONTEXT('',#45,'mechanical');
#225=PRODUCT_DEFINITION_FORMATION_WITH_SPECIFIED_SOURCE(' ','NONE',#128,.NOT_KNOWN.);
#226=CARTESIAN_POINT('',(0.0,0.0,0.0));
#227=DIRECTION('',(0.0,0.0,1.0));
#228=DIRECTION('',(1.0,0.0,0.0));
#229= (NAMED_UNIT(#136)LENGTH_UNIT()SI_UNIT(.MILLI.,.METRE.));
#230=SURFACE_SIDE_STYLE('',(#332));
#231=EDGE_LOOP('',(#333,#334,#335,#336));
#232=AXIS2_PLACEMENT_3D('',#337,#338,#339);
#233=DRAUGHTING_PRE_DEFINED_CURVE_FONT('continuous');
#234=COLOUR_RGB('',0.509803950786591,0.509803950786591,0.588235318660736);
#235=AXIS2_PLACEMENT_3D('',#340,#341,#342);
#236=DRAUGHTING_PRE_DEFINED_CURVE_FONT('continuous');
#237=COLOUR_RGB('',0.509803950786591,0.509803950786591,0.588235318660736);
#238=AXIS2_PLACEMENT_3D('',#343,#344,#345);
#239=SURFACE_SIDE_STYLE('',(#346));
#240=PRE_DEFINED_MARKER('');
#241=COLOUR_RGB('',0.509803950786591,0.509803950786591,0.588235318660736);
#242=DRAUGHTING_PRE_DEFINED_CURVE_FONT('continuous');
#243=COLOUR_RGB('',0.509803950786591,0.509803950786591,0.588235318660736);
#244=AXIS2_PLACEMENT_3D('',#347,#348,#349);
#245=DRAUGHTING_PRE_DEFINED_CURVE_FONT('continuous');
#246=COLOUR_RGB('',0.509803950786591,0.509803950786591,0.588235318660736);
#247=AXIS2_PLACEMENT_3D('',#350,#351,#352);
#248=PRE_DEFINED_MARKER('');
#249=COLOUR_RGB('',0.509803950786591,0.509803950786591,0.588235318660736);
#250=SURFACE_SIDE_STYLE('',(#353));
#251=EDGE_LOOP('',(#354,#355));
#252=EDGE_LOOP('',(#356,#357));
#253=AXIS2_PLACEMENT_3D('',#358,#359,#360);
#254=DRAUGHTING_PRE_DEFINED_CURVE_FONT('continuous');
#255=COLOUR_RGB('',0.509803950786591,0.509803950786591,0.588235318660736);
#256=CARTESIAN_POINT('',(-6.0,1.03505338350524E-014,1.56180581256683));
#257=VECTOR('',#361,1.0);
#258=DRAUGHTING_PRE_DEFINED_CURVE_FONT('continuous');
#259=COLOUR_RGB('',0.509803950786591,0.509803950786591,0.588235318660736);
#260=AXIS2_PLACEMENT_3D('',#362,#363,#364);
#261=SURFACE_SIDE_STYLE('',(#365));
#262=EDGE_LOOP('',(#366,#367,#368,#369));
#263=AXIS2_PLACEMENT_3D('',#370,#371,#372);
#264=DRAUGHTING_PRE_DEFINED_CURVE_FONT('continuous');
#265=COLOUR_RGB('',0.509803950786591,0.509803950786591,0.588235318660736);
#266=CARTESIAN_POINT('',(6.0,1.39014217621962E-014,1.56180581256683));
#267=VECTOR('',#373,1.0);
#268=DRAUGHTING_PRE_DEFINED_CURVE_FONT('continuous');
#269=COLOUR_RGB('',0.509803950786591,0.509803950786591,0.588235318660736);
#270=AXIS2_PLACEMENT_3D('',#374,#375,#376);
#271=DRAUGHTING_PRE_DEFINED_CURVE_FONT('continuous');
#272=COLOUR_RGB('',0.509803950786591,0.509803950786591,0.588235318660736);
#273=CARTESIAN_POINT('',(14.9999999999999,1.6564587707554E-014,2.49999999999997));
#274=VECTOR('',#377,1.0);
#275=PRE_DEFINED_MARKER('');
#276=COLOUR_RGB('',0.509803950786591,0.509803950786591,0.588235318660736);
#277=PRE_DEFINED_MARKER('');
#278=COLOUR_RGB('',0.509803950786591,0.509803950786591,0.588235318660736);
#279=PRE_DEFINED_MARKER('');
#280=COLOUR_RGB('',0.509803950786591,0.509803950786591,0.588235318660736);
#281=DRAUGHTING_PRE_DEFINED_CURVE_FONT('continuous');
#282=COLOUR_RGB('',0.509803950786591,0.509803950786591,0.588235318660736);
#283=CARTESIAN_POINT('',(7.62500000000003,1.43822711689969E-014,4.06180581256683));
#284=VECTOR('',#378,1.0);
#285=DRAUGHTING_PRE_DEFINED_CURVE_FONT('continuous');
#286=COLOUR_RGB('',0.509803950786591,0.509803950786591,0.588235318660736);
#287=AXIS2_PLACEMENT_3D('',#379,#380,#381);
#288=DRAUGHTING_PRE_DEFINED_CURVE_FONT('continuous');
#289=COLOUR_RGB('',0.509803950786591,0.509803950786591,0.588235318660736);
#290=AXIS2_PLACEMENT_3D('',#382,#383,#384);
#291=SURFACE_SIDE_STYLE('',(#385));
#292=EDGE_LOOP('',(#386,#387));
#293=EDGE_LOOP('',(#388,#389));
#294=AXIS2_PLACEMENT_3D('',#390,#391,#392);
#295=PRE_DEFINED_MARKER('');
#296=COLOUR_RGB('',0.509803950786591,0.509803950786591,0.588235318660736);
#297=SURFACE_SIDE_STYLE('',(#393));
#298=EDGE_LOOP('',(#394,#395,#396,#397));
#299=AXIS2_PLACEMENT_3D('',#398,#399,#400);
#300=DRAUGHTING_PRE_DEFINED_CURVE_FONT('continuous');
#301=COLOUR_RGB('',0.509803950786591,0.509803950786591,0.588235318660736);
#302=AXIS2_PLACEMENT_3D('',#401,#402,#403);
#303=DRAUGHTING_PRE_DEFINED_CURVE_FONT('continuous');
#304=COLOUR_RGB('',0.509803950786591,0.509803950786591,0.588235318660736);
#305=AXIS2_PLACEMENT_3D('',#404,#405,#406);
#306=PRE_DEFINED_MARKER('');
#307=COLOUR_RGB('',0.509803950786591,0.509803950786591,0.588235318660736);
#308=SURFACE_SIDE_STYLE('',(#407));
#309=EDGE_LOOP('',(#408,#409,#410,#411));
#310=AXIS2_PLACEMENT_3D('',#412,#413,#414);
#311=PRE_DEFINED_MARKER('');
#312=COLOUR_RGB('',0.509803950786591,0.509803950786591,0.588235318660736);
#313=PRE_DEFINED_MARKER('');
#314=COLOUR_RGB('',0.509803950786591,0.509803950786591,0.588235318660736);
#315=DRAUGHTING_PRE_DEFINED_CURVE_FONT('continuous');
#316=COLOUR_RGB('',0.509803950786591,0.509803950786591,0.588235318660736);
#317=CARTESIAN_POINT('',(-7.62500000000003,9.86968442825168E-015,4.06180581256683));
#318=VECTOR('',#415,1.0);
#319=PRE_DEFINED_MARKER('');
#320=COLOUR_RGB('',0.509803950786591,0.509803950786591,0.588235318660736);
#321=DRAUGHTING_PRE_DEFINED_CURVE_FONT('continuous');
#322=COLOUR_RGB('',0.509803950786591,0.509803950786591,0.588235318660736);
#323=CARTESIAN_POINT('',(-14.9999999999999,7.68736788969457E-015,2.49999999999997));
#324=VECTOR('',#416,1.0);
#325=SURFACE_SIDE_STYLE('',(#417));
#326=EDGE_LOOP('',(#418,#419,#420,#421));
#327=AXIS2_PLACEMENT_3D('',#422,#423,#424);
#328=SURFACE_SIDE_STYLE('',(#425));
#329=EDGE_LOOP('',(#426,#427,#428,#429));
#330=AXIS2_PLACEMENT_3D('',#430,#431,#432);
#332=SURFACE_STYLE_FILL_AREA(#433);
#333=ORIENTED_EDGE('',*,*,#123,.T.);
#334=ORIENTED_EDGE('',*,*,#63,.F.);
#335=ORIENTED_EDGE('',*,*,#87,.T.);
#336=ORIENTED_EDGE('',*,*,#71,.T.);
#337=CARTESIAN_POINT('',(0.0,1.21259777986243E-014,2.49999999999997));
#338=DIRECTION('',(0.0,-0.0,1.0));
#339=DIRECTION('',(-1.0,-1.73446691879746E-016,0.0));
#340=CARTESIAN_POINT('',(0.0,1.21259777986243E-014,-2.8421709430404E-014));
#341=DIRECTION('',(-0.0,0.0,-1.0));
#342=DIRECTION('',(-1.0,-1.73446691879746E-016,0.0));
#343=CARTESIAN_POINT('',(0.0,1.21259777986243E-014,-2.8421709430404E-014));
#344=DIRECTION('',(-0.0,0.0,-1.0));
#345=DIRECTION('',(-1.0,-1.73446691879746E-016,0.0));
#346=SURFACE_STYLE_FILL_AREA(#434);
#347=CARTESIAN_POINT('',(0.0,1.21259777986243E-014,-2.8421709430404E-014));
#348=DIRECTION('',(-0.0,0.0,-1.0));
#349=DIRECTION('',(-1.0,-1.73446691879746E-016,0.0));
#350=CARTESIAN_POINT('',(0.0,1.21259777986243E-014,4.99999999999997));
#351=DIRECTION('',(-0.0,0.0,-1.0));
#352=DIRECTION('',(-1.0,-1.73446691879746E-016,0.0));
#353=SURFACE_STYLE_FILL_AREA(#435);
#354=ORIENTED_EDGE('',*,*,#107,.F.);
#355=ORIENTED_EDGE('',*,*,#71,.F.);
#356=ORIENTED_EDGE('',*,*,#79,.T.);
#357=ORIENTED_EDGE('',*,*,#99,.T.);
#358=CARTESIAN_POINT('',(-12.125,1.06411425946147E-014,4.99999999999997));
#359=DIRECTION('',(0.0,0.0,1.0));
#360=DIRECTION('',(-1.0,-1.22460635382238E-016,0.0));
#361=DIRECTION('',(0.0,0.0,-1.0));
#362=CARTESIAN_POINT('',(0.0,1.21259777986243E-014,4.99999999999997));
#363=DIRECTION('',(-0.0,0.0,-1.0));
#364=DIRECTION('',(-1.0,-1.73446691879746E-016,0.0));
#365=SURFACE_STYLE_FILL_AREA(#436);
#366=ORIENTED_EDGE('',*,*,#119,.F.);
#367=ORIENTED_EDGE('',*,*,#99,.F.);
#368=ORIENTED_EDGE('',*,*,#95,.F.);
#369=ORIENTED_EDGE('',*,*,#109,.T.);
#370=CARTESIAN_POINT('',(0.0,1.21259777986243E-014,4.06180581256683));
#371=DIRECTION('',(0.0,-0.0,1.0));
#372=DIRECTION('',(-1.0,-1.73446691879746E-016,0.0));
#373=DIRECTION('',(0.0,0.0,1.0));
#374=CARTESIAN_POINT('',(0.0,1.21259777986243E-014,3.12361162513369));
#375=DIRECTION('',(-0.0,0.0,-1.0));
#376=DIRECTION('',(-1.0,-1.73446691879746E-016,0.0));
#377=DIRECTION('',(-0.0,-0.0,1.0));
#378=DIRECTION('',(0.866025403784443,2.56263262574835E-016,0.499999999999993));
#379=CARTESIAN_POINT('',(0.0,1.21259777986243E-014,-2.8421709430404E-014));
#380=DIRECTION('',(-0.0,0.0,-1.0));
#381=DIRECTION('',(-1.0,-1.73446691879746E-016,0.0));
#382=CARTESIAN_POINT('',(0.0,1.21259777986243E-014,4.99999999999997));
#383=DIRECTION('',(-0.0,0.0,-1.0));
#384=DIRECTION('',(-1.0,-1.73446691879746E-016,0.0));
#385=SURFACE_STYLE_FILL_AREA(#437);
#386=ORIENTED_EDGE('',*,*,#61,.F.);
#387=ORIENTED_EDGE('',*,*,#97,.F.);
#388=ORIENTED_EDGE('',*,*,#69,.T.);
#389=ORIENTED_EDGE('',*,*,#63,.T.);
#390=CARTESIAN_POINT('',(-10.5,1.05339895386552E-014,-2.8421709430404E-014));
#391=DIRECTION('',(0.0,0.0,-1.0));
#392=DIRECTION('',(1.0,1.22460635382238E-016,0.0));
#393=SURFACE_STYLE_FILL_AREA(#438);
#394=ORIENTED_EDGE('',*,*,#77,.T.);
#395=ORIENTED_EDGE('',*,*,#61,.T.);
#396=ORIENTED_EDGE('',*,*,#83,.T.);
#397=ORIENTED_EDGE('',*,*,#85,.F.);
#398=CARTESIAN_POINT('',(0.0,1.21259777986243E-014,1.56180581256683));
#399=DIRECTION('',(0.0,-0.0,1.0));
#400=DIRECTION('',(-1.0,-1.73446691879746E-016,0.0));
#401=CARTESIAN_POINT('',(0.0,1.21259777986243E-014,4.99999999999997));
#402=DIRECTION('',(-0.0,0.0,-1.0));
#403=DIRECTION('',(-1.0,-1.73446691879746E-016,0.0));
#404=CARTESIAN_POINT('',(0.0,1.21259777986243E-014,3.12361162513369));
#405=DIRECTION('',(-0.0,0.0,-1.0));
#406=DIRECTION('',(-1.0,-1.73446691879746E-016,0.0));
#407=SURFACE_STYLE_FILL_AREA(#439);
#408=ORIENTED_EDGE('',*,*,#119,.T.);
#409=ORIENTED_EDGE('',*,*,#85,.T.);
#410=ORIENTED_EDGE('',*,*,#95,.T.);
#411=ORIENTED_EDGE('',*,*,#79,.F.);
#412=CARTESIAN_POINT('',(0.0,1.21259777986243E-014,4.06180581256683));
#413=DIRECTION('',(0.0,-0.0,1.0));
#414=DIRECTION('',(-1.0,-1.73446691879746E-016,0.0));
#415=DIRECTION('',(0.866025403784443,2.56263262574835E-016,-0.499999999999993));
#416=DIRECTION('',(0.0,0.0,-1.0));
#417=SURFACE_STYLE_FILL_AREA(#440);
#418=ORIENTED_EDGE('',*,*,#123,.F.);
#419=ORIENTED_EDGE('',*,*,#107,.T.);
#420=ORIENTED_EDGE('',*,*,#87,.F.);
#421=ORIENTED_EDGE('',*,*,#69,.F.);
#422=CARTESIAN_POINT('',(0.0,1.21259777986243E-014,2.49999999999997));
#423=DIRECTION('',(0.0,-0.0,1.0));
#424=DIRECTION('',(-1.0,-1.73446691879746E-016,0.0));
#425=SURFACE_STYLE_FILL_AREA(#441);
#426=ORIENTED_EDGE('',*,*,#77,.F.);
#427=ORIENTED_EDGE('',*,*,#109,.F.);
#428=ORIENTED_EDGE('',*,*,#83,.F.);
#429=ORIENTED_EDGE('',*,*,#97,.T.);
#430=CARTESIAN_POINT('',(0.0,1.21259777986243E-014,1.56180581256683));
#431=DIRECTION('',(0.0,-0.0,1.0));
#432=DIRECTION('',(-1.0,-1.73446691879746E-016,0.0));
#433=FILL_AREA_STYLE('',(#442));
#434=FILL_AREA_STYLE('',(#443));
#435=FILL_AREA_STYLE('',(#444));
#436=FILL_AREA_STYLE('',(#445));
#437=FILL_AREA_STYLE('',(#446));
#438=FILL_AREA_STYLE('',(#447));
#439=FILL_AREA_STYLE('',(#448));
#440=FILL_AREA_STYLE('',(#449));
#441=FILL_AREA_STYLE('',(#450));
#442=FILL_AREA_STYLE_COLOUR('',#451);
#443=FILL_AREA_STYLE_COLOUR('',#452);
#444=FILL_AREA_STYLE_COLOUR('',#453);
#445=FILL_AREA_STYLE_COLOUR('',#454);
#446=FILL_AREA_STYLE_COLOUR('',#455);
#447=FILL_AREA_STYLE_COLOUR('',#456);
#448=FILL_AREA_STYLE_COLOUR('',#457);
#449=FILL_AREA_STYLE_COLOUR('',#458);
#450=FILL_AREA_STYLE_COLOUR('',#459);
#451=COLOUR_RGB('',0.509803950786591,0.509803950786591,0.588235318660736);
#452=COLOUR_RGB('',0.509803950786591,0.509803950786591,0.588235318660736);
#453=COLOUR_RGB('',0.509803950786591,0.509803950786591,0.588235318660736);
#454=COLOUR_RGB('',0.509803950786591,0.509803950786591,0.588235318660736);
#455=COLOUR_RGB('',0.509803950786591,0.509803950786591,0.588235318660736);
#456=COLOUR_RGB('',0.509803950786591,0.509803950786591,0.588235318660736);
#457=COLOUR_RGB('',0.509803950786591,0.509803950786591,0.588235318660736);
#458=COLOUR_RGB('',0.509803950786591,0.509803950786591,0.588235318660736);
#459=COLOUR_RGB('',0.509803950786591,0.509803950786591,0.588235318660736);
ENDSEC;
END-ISO-10303-21;
