ISO-10303-21;
HEADER;
FILE_DESCRIPTION(('STEP AP214'),'1');
FILE_NAME(' ','  ',('TraceParts'),('TraceParts S.A.'),'XStep 1.0',' ',' ');
FILE_SCHEMA(('automotive_design'));
ENDSEC;
DATA;
#1=MECHANICAL_DESIGN_GEOMETRIC_PRESENTATION_REPRESENTATION(' ',(#10,#11,#12,#13,#14,#15,#16,#17,#18,#19,#20,#21,#22,#23,#24,#25,#26,#27,#28,#29,#30,#31,#32,#33,#34,#35,#36,#37,#38,#39,#40,#41,#42,#43,#44),#6);
#2=PRODUCT_DEFINITION_CONTEXT('',#45,'design');
#3=APPLICATION_PROTOCOL_DEFINITION('INTERNATIONAL STANDARD','automotive_design',1994,#45);
#4=PRODUCT_CATEGORY_RELATIONSHIP('NONE','NONE',#46,#47);
#5=SHAPE_DEFINITION_REPRESENTATION(#48,#49);
#6= (GEOMETRIC_REPRESENTATION_CONTEXT(3)GLOBAL_UNCERTAINTY_ASSIGNED_CONTEXT((#52))GLOBAL_UNIT_ASSIGNED_CONTEXT((#54,#55,#56))REPRESENTATION_CONTEXT('NONE','WORKSPACE'));
#10=STYLED_ITEM('',(#58),#59);
#11=STYLED_ITEM('',(#60),#61);
#12=STYLED_ITEM('',(#62),#63);
#13=STYLED_ITEM('',(#64),#65);
#14=STYLED_ITEM('',(#66),#67);
#15=STYLED_ITEM('',(#68),#69);
#16=STYLED_ITEM('',(#70),#71);
#17=STYLED_ITEM('',(#72),#73);
#18=STYLED_ITEM('',(#74),#75);
#19=STYLED_ITEM('',(#76),#77);
#20=STYLED_ITEM('',(#78),#79);
#21=STYLED_ITEM('',(#80),#81);
#22=STYLED_ITEM('',(#82),#83);
#23=STYLED_ITEM('',(#84),#85);
#24=STYLED_ITEM('',(#86),#87);
#25=STYLED_ITEM('',(#88),#89);
#26=STYLED_ITEM('',(#90),#91);
#27=STYLED_ITEM('',(#92),#93);
#28=STYLED_ITEM('',(#94),#95);
#29=STYLED_ITEM('',(#96),#97);
#30=STYLED_ITEM('',(#98),#99);
#31=STYLED_ITEM('',(#100),#101);
#32=STYLED_ITEM('',(#102),#103);
#33=STYLED_ITEM('',(#104),#105);
#34=STYLED_ITEM('',(#106),#107);
#35=STYLED_ITEM('',(#108),#109);
#36=STYLED_ITEM('',(#110),#111);
#37=STYLED_ITEM('',(#112),#113);
#38=STYLED_ITEM('',(#114),#115);
#39=STYLED_ITEM('',(#116),#117);
#40=STYLED_ITEM('',(#118),#119);
#41=STYLED_ITEM('',(#120),#121);
#42=STYLED_ITEM('',(#122),#123);
#43=STYLED_ITEM('',(#124),#125);
#44=STYLED_ITEM('',(#126),#127);
#45=APPLICATION_CONTEXT(' ');
#46=PRODUCT_CATEGORY('part','NONE');
#47=PRODUCT_RELATED_PRODUCT_CATEGORY('detail',' ',(#128));
#48=PRODUCT_DEFINITION_SHAPE('NONE','NONE',#129);
#49=ADVANCED_BREP_SHAPE_REPRESENTATION('1',(#61,#130),#6);
#52=UNCERTAINTY_MEASURE_WITH_UNIT(LENGTH_MEASURE(1.0E-006),#54,'','');
#54= (CONVERSION_BASED_UNIT('MILLIMETRE',#133)LENGTH_UNIT()NAMED_UNIT(#136));
#55= (NAMED_UNIT(#138)PLANE_ANGLE_UNIT()SI_UNIT($,.RADIAN.));
#56= (NAMED_UNIT(#138)SOLID_ANGLE_UNIT()SI_UNIT($,.STERADIAN.));
#58=PRESENTATION_STYLE_ASSIGNMENT((#144));
#59=VERTEX_POINT('',#145);
#60=PRESENTATION_STYLE_ASSIGNMENT((#146));
#61=MANIFOLD_SOLID_BREP('1',#147);
#62=PRESENTATION_STYLE_ASSIGNMENT((#148));
#63=VERTEX_POINT('',#149);
#64=PRESENTATION_STYLE_ASSIGNMENT((#150));
#65=EDGE_CURVE('',#71,#89,#151,.T.);
#66=PRESENTATION_STYLE_ASSIGNMENT((#152));
#67=EDGE_CURVE('',#59,#93,#153,.T.);
#68=PRESENTATION_STYLE_ASSIGNMENT((#154));
#69=ADVANCED_FACE('',(#155),#156,.F.);
#70=PRESENTATION_STYLE_ASSIGNMENT((#157));
#71=VERTEX_POINT('',#158);
#72=PRESENTATION_STYLE_ASSIGNMENT((#159));
#73=VERTEX_POINT('',#160);
#74=PRESENTATION_STYLE_ASSIGNMENT((#161));
#75=EDGE_CURVE('',#63,#93,#162,.T.);
#76=PRESENTATION_STYLE_ASSIGNMENT((#163));
#77=EDGE_CURVE('',#73,#63,#164,.T.);
#78=PRESENTATION_STYLE_ASSIGNMENT((#165));
#79=ADVANCED_FACE('',(#166,#167),#168,.T.);
#80=PRESENTATION_STYLE_ASSIGNMENT((#169));
#81=EDGE_CURVE('',#121,#95,#170,.T.);
#82=PRESENTATION_STYLE_ASSIGNMENT((#171));
#83=EDGE_CURVE('',#89,#121,#172,.T.);
#84=PRESENTATION_STYLE_ASSIGNMENT((#173));
#85=EDGE_CURVE('',#59,#73,#174,.T.);
#86=PRESENTATION_STYLE_ASSIGNMENT((#175));
#87=EDGE_CURVE('',#117,#115,#176,.T.);
#88=PRESENTATION_STYLE_ASSIGNMENT((#177));
#89=VERTEX_POINT('',#178);
#90=PRESENTATION_STYLE_ASSIGNMENT((#179));
#91=ADVANCED_FACE('',(#180),#181,.F.);
#92=PRESENTATION_STYLE_ASSIGNMENT((#182));
#93=VERTEX_POINT('',#183);
#94=PRESENTATION_STYLE_ASSIGNMENT((#184));
#95=VERTEX_POINT('',#185);
#96=PRESENTATION_STYLE_ASSIGNMENT((#186));
#97=EDGE_CURVE('',#93,#59,#187,.T.);
#98=PRESENTATION_STYLE_ASSIGNMENT((#188));
#99=EDGE_CURVE('',#95,#121,#189,.T.);
#100=PRESENTATION_STYLE_ASSIGNMENT((#190));
#101=EDGE_CURVE('',#121,#115,#191,.T.);
#102=PRESENTATION_STYLE_ASSIGNMENT((#192));
#103=EDGE_CURVE('',#89,#71,#193,.T.);
#104=PRESENTATION_STYLE_ASSIGNMENT((#194));
#105=EDGE_CURVE('',#95,#71,#195,.T.);
#106=PRESENTATION_STYLE_ASSIGNMENT((#196));
#107=ADVANCED_FACE('',(#197),#198,.T.);
#108=PRESENTATION_STYLE_ASSIGNMENT((#199));
#109=ADVANCED_FACE('',(#200),#201,.T.);
#110=PRESENTATION_STYLE_ASSIGNMENT((#202));
#111=EDGE_CURVE('',#63,#73,#203,.T.);
#112=PRESENTATION_STYLE_ASSIGNMENT((#204));
#113=EDGE_CURVE('',#115,#117,#205,.T.);
#114=PRESENTATION_STYLE_ASSIGNMENT((#206));
#115=VERTEX_POINT('',#207);
#116=PRESENTATION_STYLE_ASSIGNMENT((#208));
#117=VERTEX_POINT('',#209);
#118=PRESENTATION_STYLE_ASSIGNMENT((#210));
#119=EDGE_CURVE('',#117,#95,#211,.T.);
#120=PRESENTATION_STYLE_ASSIGNMENT((#212));
#121=VERTEX_POINT('',#213);
#122=PRESENTATION_STYLE_ASSIGNMENT((#214));
#123=ADVANCED_FACE('',(#215,#216),#217,.T.);
#124=PRESENTATION_STYLE_ASSIGNMENT((#218));
#125=ADVANCED_FACE('',(#219),#220,.F.);
#126=PRESENTATION_STYLE_ASSIGNMENT((#221));
#127=ADVANCED_FACE('',(#222),#223,.F.);
#128=PRODUCT('1','1','PART-1-DESC',(#224));
#129=PRODUCT_DEFINITION('NONE','NONE',#225,#2);
#130=AXIS2_PLACEMENT_3D('',#226,#227,#228);
#133=LENGTH_MEASURE_WITH_UNIT(LENGTH_MEASURE(1.0),#229);
#136=DIMENSIONAL_EXPONENTS(1.0,0.0,0.0,0.0,0.0,0.0,0.0);
#138=DIMENSIONAL_EXPONENTS(0.0,0.0,0.0,0.0,0.0,0.0,0.0);
#144=POINT_STYLE(' ',#230,POSITIVE_LENGTH_MEASURE(1.0E-006),#231);
#145=CARTESIAN_POINT('',(10.5000000000001,1.42981077846603E-014,-2.8421709430404E-014));
#146=SURFACE_STYLE_USAGE(.BOTH.,#232);
#147=CLOSED_SHELL('',(#125,#107,#91,#127,#79,#109,#123,#69));
#148=POINT_STYLE(' ',#233,POSITIVE_LENGTH_MEASURE(1.0E-006),#234);
#149=CARTESIAN_POINT('',(-10.5,9.99086118305649E-015,4.19999999999996));
#150=CURVE_STYLE('',#235,POSITIVE_LENGTH_MEASURE(1.0E-006),#236);
#151=CIRCLE('',#237,6.0);
#152=CURVE_STYLE('',#238,POSITIVE_LENGTH_MEASURE(1.0E-006),#239);
#153=CIRCLE('',#240,10.5);
#154=SURFACE_STYLE_USAGE(.BOTH.,#241);
#155=FACE_OUTER_BOUND('',#242,.T.);
#156=CYLINDRICAL_SURFACE('',#243,6.0);
#157=POINT_STYLE(' ',#244,POSITIVE_LENGTH_MEASURE(1.0E-006),#245);
#158=CARTESIAN_POINT('',(-5.99999999999997,1.02847667079739E-014,-2.8421709430404E-014));
#159=POINT_STYLE(' ',#246,POSITIVE_LENGTH_MEASURE(1.0E-006),#247);
#160=CARTESIAN_POINT('',(10.5000000000001,1.42981077846603E-014,4.19999999999996));
#161=CURVE_STYLE('',#248,POSITIVE_LENGTH_MEASURE(1.0E-006),#249);
#162=LINE('',#250,#251);
#163=CURVE_STYLE('',#252,POSITIVE_LENGTH_MEASURE(1.0E-006),#253);
#164=CIRCLE('',#254,10.5);
#165=SURFACE_STYLE_USAGE(.BOTH.,#255);
#166=FACE_OUTER_BOUND('',#256,.T.);
#167=FACE_BOUND('',#257,.T.);
#168=PLANE('',#258);
#169=CURVE_STYLE('',#259,POSITIVE_LENGTH_MEASURE(1.0E-006),#260);
#170=CIRCLE('',#261,6.0);
#171=CURVE_STYLE('',#262,POSITIVE_LENGTH_MEASURE(1.0E-006),#263);
#172=LINE('',#264,#265);
#173=CURVE_STYLE('',#266,POSITIVE_LENGTH_MEASURE(1.0E-006),#267);
#174=LINE('',#268,#269);
#175=CURVE_STYLE('',#270,POSITIVE_LENGTH_MEASURE(1.0E-006),#271);
#176=CIRCLE('',#272,9.25000000000003);
#177=POINT_STYLE(' ',#273,POSITIVE_LENGTH_MEASURE(1.0E-006),#274);
#178=CARTESIAN_POINT('',(6.00000000000003,1.30032178146216E-014,-2.8421709430404E-014));
#179=SURFACE_STYLE_USAGE(.BOTH.,#275);
#180=FACE_OUTER_BOUND('',#276,.T.);
#181=CONICAL_SURFACE('',#277,7.62500000000001,1.04719755119659);
#182=POINT_STYLE(' ',#278,POSITIVE_LENGTH_MEASURE(1.0E-006),#279);
#183=CARTESIAN_POINT('',(-10.5,9.73369384875379E-015,-2.8421709430404E-014));
#184=POINT_STYLE(' ',#280,POSITIVE_LENGTH_MEASURE(1.0E-006),#281);
#185=CARTESIAN_POINT('',(-5.99999999999997,1.04270421859716E-014,2.32361162513362));
#186=CURVE_STYLE('',#282,POSITIVE_LENGTH_MEASURE(1.0E-006),#283);
#187=CIRCLE('',#284,10.5);
#188=CURVE_STYLE('',#285,POSITIVE_LENGTH_MEASURE(1.0E-006),#286);
#189=CIRCLE('',#287,6.0);
#190=CURVE_STYLE('',#288,POSITIVE_LENGTH_MEASURE(1.0E-006),#289);
#191=LINE('',#290,#291);
#192=CURVE_STYLE('',#292,POSITIVE_LENGTH_MEASURE(1.0E-006),#293);
#193=CIRCLE('',#294,6.0);
#194=CURVE_STYLE('',#295,POSITIVE_LENGTH_MEASURE(1.0E-006),#296);
#195=LINE('',#297,#298);
#196=SURFACE_STYLE_USAGE(.BOTH.,#299);
#197=FACE_OUTER_BOUND('',#300,.T.);
#198=CYLINDRICAL_SURFACE('',#301,10.5);
#199=SURFACE_STYLE_USAGE(.BOTH.,#302);
#200=FACE_OUTER_BOUND('',#303,.T.);
#201=CYLINDRICAL_SURFACE('',#304,10.5);
#202=CURVE_STYLE('',#305,POSITIVE_LENGTH_MEASURE(1.0E-006),#306);
#203=CIRCLE('',#307,10.5);
#204=CURVE_STYLE('',#308,POSITIVE_LENGTH_MEASURE(1.0E-006),#309);
#205=CIRCLE('',#310,9.25000000000003);
#206=POINT_STYLE(' ',#311,POSITIVE_LENGTH_MEASURE(1.0E-006),#312);
#207=CARTESIAN_POINT('',(9.25000000000006,1.39384161263162E-014,4.19999999999996));
#208=POINT_STYLE(' ',#313,POSITIVE_LENGTH_MEASURE(1.0E-006),#314);
#209=CARTESIAN_POINT('',(-9.25,1.01439369772843E-014,4.19999999999996));
#210=CURVE_STYLE('',#315,POSITIVE_LENGTH_MEASURE(1.0E-006),#316);
#211=LINE('',#317,#318);
#212=POINT_STYLE(' ',#319,POSITIVE_LENGTH_MEASURE(1.0E-006),#320);
#213=CARTESIAN_POINT('',(6.00000000000003,1.30032178146216E-014,2.32361162513362));
#214=SURFACE_STYLE_USAGE(.BOTH.,#321);
#215=FACE_BOUND('',#322,.T.);
#216=FACE_OUTER_BOUND('',#323,.T.);
#217=PLANE('',#324);
#218=SURFACE_STYLE_USAGE(.BOTH.,#325);
#219=FACE_OUTER_BOUND('',#326,.T.);
#220=CYLINDRICAL_SURFACE('',#327,6.0);
#221=SURFACE_STYLE_USAGE(.BOTH.,#328);
#222=FACE_OUTER_BOUND('',#329,.T.);
#223=CONICAL_SURFACE('',#330,7.62500000000001,1.04719755119659);
#224=PRODUCT_CONTEXT('',#45,'mechanical');
#225=PRODUCT_DEFINITION_FORMATION_WITH_SPECIFIED_SOURCE(' ','NONE',#128,.NOT_KNOWN.);
#226=CARTESIAN_POINT('',(0.0,0.0,0.0));
#227=DIRECTION('',(0.0,0.0,1.0));
#228=DIRECTION('',(1.0,0.0,0.0));
#229= (NAMED_UNIT(#136)LENGTH_UNIT()SI_UNIT(.MILLI.,.METRE.));
#230=PRE_DEFINED_MARKER('');
#231=COLOUR_RGB('',0.509803950786591,0.509803950786591,0.588235318660736);
#232=SURFACE_SIDE_STYLE('',(#332));
#233=PRE_DEFINED_MARKER('');
#234=COLOUR_RGB('',0.509803950786591,0.509803950786591,0.588235318660736);
#235=DRAUGHTING_PRE_DEFINED_CURVE_FONT('continuous');
#236=COLOUR_RGB('',0.509803950786591,0.509803950786591,0.588235318660736);
#237=AXIS2_PLACEMENT_3D('',#333,#334,#335);
#238=DRAUGHTING_PRE_DEFINED_CURVE_FONT('continuous');
#239=COLOUR_RGB('',0.509803950786591,0.509803950786591,0.588235318660736);
#240=AXIS2_PLACEMENT_3D('',#336,#337,#338);
#241=SURFACE_SIDE_STYLE('',(#339));
#242=EDGE_LOOP('',(#340,#341,#342,#343));
#243=AXIS2_PLACEMENT_3D('',#344,#345,#346);
#244=PRE_DEFINED_MARKER('');
#245=COLOUR_RGB('',0.509803950786591,0.509803950786591,0.588235318660736);
#246=PRE_DEFINED_MARKER('');
#247=COLOUR_RGB('',0.509803950786591,0.509803950786591,0.588235318660736);
#248=DRAUGHTING_PRE_DEFINED_CURVE_FONT('continuous');
#249=COLOUR_RGB('',0.509803950786591,0.509803950786591,0.588235318660736);
#250=CARTESIAN_POINT('',(-10.5,8.25528792447965E-015,2.09999999999997));
#251=VECTOR('',#347,1.0);
#252=DRAUGHTING_PRE_DEFINED_CURVE_FONT('continuous');
#253=COLOUR_RGB('',0.509803950786591,0.509803950786591,0.588235318660736);
#254=AXIS2_PLACEMENT_3D('',#348,#349,#350);
#255=SURFACE_SIDE_STYLE('',(#351));
#256=EDGE_LOOP('',(#352,#353));
#257=EDGE_LOOP('',(#354,#355));
#258=AXIS2_PLACEMENT_3D('',#356,#357,#358);
#259=DRAUGHTING_PRE_DEFINED_CURVE_FONT('continuous');
#260=COLOUR_RGB('',0.509803950786591,0.509803950786591,0.588235318660736);
#261=AXIS2_PLACEMENT_3D('',#359,#360,#361);
#262=DRAUGHTING_PRE_DEFINED_CURVE_FONT('continuous');
#263=COLOUR_RGB('',0.509803950786591,0.509803950786591,0.588235318660736);
#264=CARTESIAN_POINT('',(6.00000000000003,1.30032178146216E-014,1.1618058125668));
#265=VECTOR('',#362,1.0);
#266=DRAUGHTING_PRE_DEFINED_CURVE_FONT('continuous');
#267=COLOUR_RGB('',0.509803950786591,0.509803950786591,0.588235318660736);
#268=CARTESIAN_POINT('',(10.5000000000001,1.42981077846603E-014,2.09999999999997));
#269=VECTOR('',#363,1.0);
#270=DRAUGHTING_PRE_DEFINED_CURVE_FONT('continuous');
#271=COLOUR_RGB('',0.509803950786591,0.509803950786591,0.588235318660736);
#272=AXIS2_PLACEMENT_3D('',#364,#365,#366);
#273=PRE_DEFINED_MARKER('');
#274=COLOUR_RGB('',0.509803950786591,0.509803950786591,0.588235318660736);
#275=SURFACE_SIDE_STYLE('',(#367));
#276=EDGE_LOOP('',(#368,#369,#370,#371));
#277=AXIS2_PLACEMENT_3D('',#372,#373,#374);
#278=PRE_DEFINED_MARKER('');
#279=COLOUR_RGB('',0.509803950786591,0.509803950786591,0.588235318660736);
#280=PRE_DEFINED_MARKER('');
#281=COLOUR_RGB('',0.509803950786591,0.509803950786591,0.588235318660736);
#282=DRAUGHTING_PRE_DEFINED_CURVE_FONT('continuous');
#283=COLOUR_RGB('',0.509803950786591,0.509803950786591,0.588235318660736);
#284=AXIS2_PLACEMENT_3D('',#375,#376,#377);
#285=DRAUGHTING_PRE_DEFINED_CURVE_FONT('continuous');
#286=COLOUR_RGB('',0.509803950786591,0.509803950786591,0.588235318660736);
#287=AXIS2_PLACEMENT_3D('',#378,#379,#380);
#288=DRAUGHTING_PRE_DEFINED_CURVE_FONT('continuous');
#289=COLOUR_RGB('',0.509803950786591,0.509803950786591,0.588235318660736);
#290=CARTESIAN_POINT('',(7.62500000000004,1.34708169704689E-014,3.26180581256679));
#291=VECTOR('',#381,1.0);
#292=DRAUGHTING_PRE_DEFINED_CURVE_FONT('continuous');
#293=COLOUR_RGB('',0.509803950786591,0.509803950786591,0.588235318660736);
#294=AXIS2_PLACEMENT_3D('',#382,#383,#384);
#295=DRAUGHTING_PRE_DEFINED_CURVE_FONT('continuous');
#296=COLOUR_RGB('',0.509803950786591,0.509803950786591,0.588235318660736);
#297=CARTESIAN_POINT('',(-5.99999999999997,9.55017789451837E-015,1.1618058125668));
#298=VECTOR('',#385,1.0);
#299=SURFACE_SIDE_STYLE('',(#386));
#300=EDGE_LOOP('',(#387,#388,#389,#390));
#301=AXIS2_PLACEMENT_3D('',#391,#392,#393);
#302=SURFACE_SIDE_STYLE('',(#394));
#303=EDGE_LOOP('',(#395,#396,#397,#398));
#304=AXIS2_PLACEMENT_3D('',#399,#400,#401);
#305=DRAUGHTING_PRE_DEFINED_CURVE_FONT('continuous');
#306=COLOUR_RGB('',0.509803950786591,0.509803950786591,0.588235318660736);
#307=AXIS2_PLACEMENT_3D('',#402,#403,#404);
#308=DRAUGHTING_PRE_DEFINED_CURVE_FONT('continuous');
#309=COLOUR_RGB('',0.509803950786591,0.509803950786591,0.588235318660736);
#310=AXIS2_PLACEMENT_3D('',#405,#406,#407);
#311=PRE_DEFINED_MARKER('');
#312=COLOUR_RGB('',0.509803950786591,0.509803950786591,0.588235318660736);
#313=PRE_DEFINED_MARKER('');
#314=COLOUR_RGB('',0.509803950786591,0.509803950786591,0.588235318660736);
#315=DRAUGHTING_PRE_DEFINED_CURVE_FONT('continuous');
#316=COLOUR_RGB('',0.509803950786591,0.509803950786591,0.588235318660736);
#317=CARTESIAN_POINT('',(-7.62499999999999,9.08257873867106E-015,3.26180581256679));
#318=VECTOR('',#408,1.0);
#319=PRE_DEFINED_MARKER('');
#320=COLOUR_RGB('',0.509803950786591,0.509803950786591,0.588235318660736);
#321=SURFACE_SIDE_STYLE('',(#409));
#322=EDGE_LOOP('',(#410,#411));
#323=EDGE_LOOP('',(#412,#413));
#324=AXIS2_PLACEMENT_3D('',#414,#415,#416);
#325=SURFACE_SIDE_STYLE('',(#417));
#326=EDGE_LOOP('',(#418,#419,#420,#421));
#327=AXIS2_PLACEMENT_3D('',#422,#423,#424);
#328=SURFACE_SIDE_STYLE('',(#425));
#329=EDGE_LOOP('',(#426,#427,#428,#429));
#330=AXIS2_PLACEMENT_3D('',#430,#431,#432);
#332=SURFACE_STYLE_FILL_AREA(#433);
#333=CARTESIAN_POINT('',(2.8421709430404E-014,1.127669785457E-014,-2.8421709430404E-014));
#334=DIRECTION('',(-0.0,0.0,-1.0));
#335=DIRECTION('',(-1.0,-1.65292691293031E-016,0.0));
#336=CARTESIAN_POINT('',(2.8421709430404E-014,1.127669785457E-014,-2.8421709430404E-014));
#337=DIRECTION('',(-0.0,0.0,-1.0));
#338=DIRECTION('',(-1.0,-1.65292691293031E-016,0.0));
#339=SURFACE_STYLE_FILL_AREA(#434);
#340=ORIENTED_EDGE('',*,*,#105,.T.);
#341=ORIENTED_EDGE('',*,*,#65,.T.);
#342=ORIENTED_EDGE('',*,*,#83,.T.);
#343=ORIENTED_EDGE('',*,*,#99,.F.);
#344=CARTESIAN_POINT('',(2.8421709430404E-014,1.127669785457E-014,1.1618058125668));
#345=DIRECTION('',(0.0,-0.0,1.0));
#346=DIRECTION('',(-1.0,-1.65292691293031E-016,0.0));
#347=DIRECTION('',(0.0,0.0,-1.0));
#348=CARTESIAN_POINT('',(2.8421709430404E-014,1.127669785457E-014,4.19999999999996));
#349=DIRECTION('',(-0.0,0.0,-1.0));
#350=DIRECTION('',(-1.0,-1.65292691293031E-016,0.0));
#351=SURFACE_STYLE_FILL_AREA(#435);
#352=ORIENTED_EDGE('',*,*,#111,.F.);
#353=ORIENTED_EDGE('',*,*,#77,.F.);
#354=ORIENTED_EDGE('',*,*,#87,.T.);
#355=ORIENTED_EDGE('',*,*,#113,.T.);
#356=CARTESIAN_POINT('',(-9.875,1.00673990801704E-014,4.19999999999996));
#357=DIRECTION('',(0.0,0.0,1.0));
#358=DIRECTION('',(-1.0,-1.22460635382238E-016,0.0));
#359=CARTESIAN_POINT('',(2.8421709430404E-014,1.127669785457E-014,2.32361162513362));
#360=DIRECTION('',(-0.0,0.0,-1.0));
#361=DIRECTION('',(-1.0,-1.65292691293031E-016,0.0));
#362=DIRECTION('',(0.0,0.0,1.0));
#363=DIRECTION('',(-0.0,-0.0,1.0));
#364=CARTESIAN_POINT('',(2.8421709430404E-014,1.127669785457E-014,4.19999999999996));
#365=DIRECTION('',(-0.0,0.0,-1.0));
#366=DIRECTION('',(-1.0,-1.65292691293031E-016,0.0));
#367=SURFACE_STYLE_FILL_AREA(#436);
#368=ORIENTED_EDGE('',*,*,#119,.F.);
#369=ORIENTED_EDGE('',*,*,#113,.F.);
#370=ORIENTED_EDGE('',*,*,#101,.F.);
#371=ORIENTED_EDGE('',*,*,#81,.T.);
#372=CARTESIAN_POINT('',(2.8421709430404E-014,1.127669785457E-014,3.26180581256679));
#373=DIRECTION('',(0.0,-0.0,1.0));
#374=DIRECTION('',(-1.0,-1.65292691293031E-016,0.0));
#375=CARTESIAN_POINT('',(2.8421709430404E-014,1.127669785457E-014,-2.8421709430404E-014));
#376=DIRECTION('',(-0.0,0.0,-1.0));
#377=DIRECTION('',(-1.0,-1.65292691293031E-016,0.0));
#378=CARTESIAN_POINT('',(2.8421709430404E-014,1.127669785457E-014,2.32361162513362));
#379=DIRECTION('',(-0.0,0.0,-1.0));
#380=DIRECTION('',(-1.0,-1.65292691293031E-016,0.0));
#381=DIRECTION('',(0.866025403784434,2.49201690924264E-016,0.500000000000008));
#382=CARTESIAN_POINT('',(2.8421709430404E-014,1.127669785457E-014,-2.8421709430404E-014));
#383=DIRECTION('',(-0.0,0.0,-1.0));
#384=DIRECTION('',(-1.0,-1.65292691293031E-016,0.0));
#385=DIRECTION('',(0.0,0.0,-1.0));
#386=SURFACE_STYLE_FILL_AREA(#437);
#387=ORIENTED_EDGE('',*,*,#75,.F.);
#388=ORIENTED_EDGE('',*,*,#111,.T.);
#389=ORIENTED_EDGE('',*,*,#85,.F.);
#390=ORIENTED_EDGE('',*,*,#97,.F.);
#391=CARTESIAN_POINT('',(2.8421709430404E-014,1.127669785457E-014,2.09999999999997));
#392=DIRECTION('',(0.0,-0.0,1.0));
#393=DIRECTION('',(-1.0,-1.65292691293031E-016,0.0));
#394=SURFACE_STYLE_FILL_AREA(#438);
#395=ORIENTED_EDGE('',*,*,#75,.T.);
#396=ORIENTED_EDGE('',*,*,#67,.F.);
#397=ORIENTED_EDGE('',*,*,#85,.T.);
#398=ORIENTED_EDGE('',*,*,#77,.T.);
#399=CARTESIAN_POINT('',(2.8421709430404E-014,1.127669785457E-014,2.09999999999997));
#400=DIRECTION('',(0.0,-0.0,1.0));
#401=DIRECTION('',(-1.0,-1.65292691293031E-016,0.0));
#402=CARTESIAN_POINT('',(2.8421709430404E-014,1.127669785457E-014,4.19999999999996));
#403=DIRECTION('',(-0.0,0.0,-1.0));
#404=DIRECTION('',(-1.0,-1.65292691293031E-016,0.0));
#405=CARTESIAN_POINT('',(2.8421709430404E-014,1.127669785457E-014,4.19999999999996));
#406=DIRECTION('',(-0.0,0.0,-1.0));
#407=DIRECTION('',(-1.0,-1.65292691293031E-016,0.0));
#408=DIRECTION('',(0.866025403784434,2.49201690924264E-016,-0.500000000000008));
#409=SURFACE_STYLE_FILL_AREA(#439);
#410=ORIENTED_EDGE('',*,*,#65,.F.);
#411=ORIENTED_EDGE('',*,*,#103,.F.);
#412=ORIENTED_EDGE('',*,*,#97,.T.);
#413=ORIENTED_EDGE('',*,*,#67,.T.);
#414=CARTESIAN_POINT('',(-8.24999999999999,1.00092302783638E-014,-2.8421709430404E-014));
#415=DIRECTION('',(0.0,0.0,-1.0));
#416=DIRECTION('',(1.0,1.22460635382238E-016,0.0));
#417=SURFACE_STYLE_FILL_AREA(#440);
#418=ORIENTED_EDGE('',*,*,#105,.F.);
#419=ORIENTED_EDGE('',*,*,#81,.F.);
#420=ORIENTED_EDGE('',*,*,#83,.F.);
#421=ORIENTED_EDGE('',*,*,#103,.T.);
#422=CARTESIAN_POINT('',(2.8421709430404E-014,1.127669785457E-014,1.1618058125668));
#423=DIRECTION('',(0.0,-0.0,1.0));
#424=DIRECTION('',(-1.0,-1.65292691293031E-016,0.0));
#425=SURFACE_STYLE_FILL_AREA(#441);
#426=ORIENTED_EDGE('',*,*,#119,.T.);
#427=ORIENTED_EDGE('',*,*,#99,.T.);
#428=ORIENTED_EDGE('',*,*,#101,.T.);
#429=ORIENTED_EDGE('',*,*,#87,.F.);
#430=CARTESIAN_POINT('',(2.8421709430404E-014,1.127669785457E-014,3.26180581256679));
#431=DIRECTION('',(0.0,-0.0,1.0));
#432=DIRECTION('',(-1.0,-1.65292691293031E-016,0.0));
#433=FILL_AREA_STYLE('',(#442));
#434=FILL_AREA_STYLE('',(#443));
#435=FILL_AREA_STYLE('',(#444));
#436=FILL_AREA_STYLE('',(#445));
#437=FILL_AREA_STYLE('',(#446));
#438=FILL_AREA_STYLE('',(#447));
#439=FILL_AREA_STYLE('',(#448));
#440=FILL_AREA_STYLE('',(#449));
#441=FILL_AREA_STYLE('',(#450));
#442=FILL_AREA_STYLE_COLOUR('',#451);
#443=FILL_AREA_STYLE_COLOUR('',#452);
#444=FILL_AREA_STYLE_COLOUR('',#453);
#445=FILL_AREA_STYLE_COLOUR('',#454);
#446=FILL_AREA_STYLE_COLOUR('',#455);
#447=FILL_AREA_STYLE_COLOUR('',#456);
#448=FILL_AREA_STYLE_COLOUR('',#457);
#449=FILL_AREA_STYLE_COLOUR('',#458);
#450=FILL_AREA_STYLE_COLOUR('',#459);
#451=COLOUR_RGB('',0.509803950786591,0.509803950786591,0.588235318660736);
#452=COLOUR_RGB('',0.509803950786591,0.509803950786591,0.588235318660736);
#453=COLOUR_RGB('',0.509803950786591,0.509803950786591,0.588235318660736);
#454=COLOUR_RGB('',0.509803950786591,0.509803950786591,0.588235318660736);
#455=COLOUR_RGB('',0.509803950786591,0.509803950786591,0.588235318660736);
#456=COLOUR_RGB('',0.509803950786591,0.509803950786591,0.588235318660736);
#457=COLOUR_RGB('',0.509803950786591,0.509803950786591,0.588235318660736);
#458=COLOUR_RGB('',0.509803950786591,0.509803950786591,0.588235318660736);
#459=COLOUR_RGB('',0.509803950786591,0.509803950786591,0.588235318660736);
ENDSEC;
END-ISO-10303-21;
