ISO-10303-21;
HEADER;
FILE_DESCRIPTION(('STEP AP214'),'1');
FILE_NAME(' ','  ',('TraceParts'),('TraceParts S.A.'),'XStep 1.0',' ',' ');
FILE_SCHEMA(('automotive_design'));
ENDSEC;
DATA;
#1=MECHANICAL_DESIGN_GEOMETRIC_PRESENTATION_REPRESENTATION(' ',(#10,#11,#12,#13,#14,#15,#16,#17,#18,#19,#20,#21,#22,#23,#24,#25,#26,#27,#28,#29,#30,#31,#32,#33,#34,#35,#36,#37,#38,#39,#40,#41,#42,#43,#44),#6);
#2=PRODUCT_DEFINITION_CONTEXT('',#45,'design');
#3=APPLICATION_PROTOCOL_DEFINITION('INTERNATIONAL STANDARD','automotive_design',1994,#45);
#4=PRODUCT_CATEGORY_RELATIONSHIP('NONE','NONE',#46,#47);
#5=SHAPE_DEFINITION_REPRESENTATION(#48,#49);
#6= (GEOMETRIC_REPRESENTATION_CONTEXT(3)GLOBAL_UNCERTAINTY_ASSIGNED_CONTEXT((#52))GLOBAL_UNIT_ASSIGNED_CONTEXT((#54,#55,#56))REPRESENTATION_CONTEXT('NONE','WORKSPACE'));
#10=STYLED_ITEM('',(#58),#59);
#11=STYLED_ITEM('',(#60),#61);
#12=STYLED_ITEM('',(#62),#63);
#13=STYLED_ITEM('',(#64),#65);
#14=STYLED_ITEM('',(#66),#67);
#15=STYLED_ITEM('',(#68),#69);
#16=STYLED_ITEM('',(#70),#71);
#17=STYLED_ITEM('',(#72),#73);
#18=STYLED_ITEM('',(#74),#75);
#19=STYLED_ITEM('',(#76),#77);
#20=STYLED_ITEM('',(#78),#79);
#21=STYLED_ITEM('',(#80),#81);
#22=STYLED_ITEM('',(#82),#83);
#23=STYLED_ITEM('',(#84),#85);
#24=STYLED_ITEM('',(#86),#87);
#25=STYLED_ITEM('',(#88),#89);
#26=STYLED_ITEM('',(#90),#91);
#27=STYLED_ITEM('',(#92),#93);
#28=STYLED_ITEM('',(#94),#95);
#29=STYLED_ITEM('',(#96),#97);
#30=STYLED_ITEM('',(#98),#99);
#31=STYLED_ITEM('',(#100),#101);
#32=STYLED_ITEM('',(#102),#103);
#33=STYLED_ITEM('',(#104),#105);
#34=STYLED_ITEM('',(#106),#107);
#35=STYLED_ITEM('',(#108),#109);
#36=STYLED_ITEM('',(#110),#111);
#37=STYLED_ITEM('',(#112),#113);
#38=STYLED_ITEM('',(#114),#115);
#39=STYLED_ITEM('',(#116),#117);
#40=STYLED_ITEM('',(#118),#119);
#41=STYLED_ITEM('',(#120),#121);
#42=STYLED_ITEM('',(#122),#123);
#43=STYLED_ITEM('',(#124),#125);
#44=STYLED_ITEM('',(#126),#127);
#45=APPLICATION_CONTEXT(' ');
#46=PRODUCT_CATEGORY('part','NONE');
#47=PRODUCT_RELATED_PRODUCT_CATEGORY('detail',' ',(#128));
#48=PRODUCT_DEFINITION_SHAPE('NONE','NONE',#129);
#49=ADVANCED_BREP_SHAPE_REPRESENTATION('1',(#71,#130),#6);
#52=UNCERTAINTY_MEASURE_WITH_UNIT(LENGTH_MEASURE(1.0E-006),#54,'','');
#54= (CONVERSION_BASED_UNIT('MILLIMETRE',#133)LENGTH_UNIT()NAMED_UNIT(#136));
#55= (NAMED_UNIT(#138)PLANE_ANGLE_UNIT()SI_UNIT($,.RADIAN.));
#56= (NAMED_UNIT(#138)SOLID_ANGLE_UNIT()SI_UNIT($,.STERADIAN.));
#58=PRESENTATION_STYLE_ASSIGNMENT((#144));
#59=EDGE_CURVE('',#121,#83,#145,.T.);
#60=PRESENTATION_STYLE_ASSIGNMENT((#146));
#61=VERTEX_POINT('',#147);
#62=PRESENTATION_STYLE_ASSIGNMENT((#148));
#63=EDGE_CURVE('',#103,#115,#149,.T.);
#64=PRESENTATION_STYLE_ASSIGNMENT((#150));
#65=ADVANCED_FACE('',(#151),#152,.T.);
#66=PRESENTATION_STYLE_ASSIGNMENT((#153));
#67=ADVANCED_FACE('',(#154,#155),#156,.T.);
#68=PRESENTATION_STYLE_ASSIGNMENT((#157));
#69=EDGE_CURVE('',#115,#81,#158,.T.);
#70=PRESENTATION_STYLE_ASSIGNMENT((#159));
#71=MANIFOLD_SOLID_BREP('1',#160);
#72=PRESENTATION_STYLE_ASSIGNMENT((#161));
#73=EDGE_CURVE('',#81,#93,#162,.T.);
#74=PRESENTATION_STYLE_ASSIGNMENT((#163));
#75=VERTEX_POINT('',#164);
#76=PRESENTATION_STYLE_ASSIGNMENT((#165));
#77=ADVANCED_FACE('',(#166),#167,.T.);
#78=PRESENTATION_STYLE_ASSIGNMENT((#168));
#79=EDGE_CURVE('',#119,#83,#169,.T.);
#80=PRESENTATION_STYLE_ASSIGNMENT((#170));
#81=VERTEX_POINT('',#171);
#82=PRESENTATION_STYLE_ASSIGNMENT((#172));
#83=VERTEX_POINT('',#173);
#84=PRESENTATION_STYLE_ASSIGNMENT((#174));
#85=EDGE_CURVE('',#75,#121,#175,.T.);
#86=PRESENTATION_STYLE_ASSIGNMENT((#176));
#87=EDGE_CURVE('',#121,#75,#177,.T.);
#88=PRESENTATION_STYLE_ASSIGNMENT((#178));
#89=EDGE_CURVE('',#93,#103,#179,.T.);
#90=PRESENTATION_STYLE_ASSIGNMENT((#180));
#91=ADVANCED_FACE('',(#181),#182,.F.);
#92=PRESENTATION_STYLE_ASSIGNMENT((#183));
#93=VERTEX_POINT('',#184);
#94=PRESENTATION_STYLE_ASSIGNMENT((#185));
#95=ADVANCED_FACE('',(#186),#187,.F.);
#96=PRESENTATION_STYLE_ASSIGNMENT((#188));
#97=ADVANCED_FACE('',(#189),#190,.F.);
#98=PRESENTATION_STYLE_ASSIGNMENT((#191));
#99=ADVANCED_FACE('',(#192,#193),#194,.T.);
#100=PRESENTATION_STYLE_ASSIGNMENT((#195));
#101=EDGE_CURVE('',#61,#115,#196,.T.);
#102=PRESENTATION_STYLE_ASSIGNMENT((#197));
#103=VERTEX_POINT('',#198);
#104=PRESENTATION_STYLE_ASSIGNMENT((#199));
#105=EDGE_CURVE('',#103,#111,#200,.T.);
#106=PRESENTATION_STYLE_ASSIGNMENT((#201));
#107=EDGE_CURVE('',#83,#119,#202,.T.);
#108=PRESENTATION_STYLE_ASSIGNMENT((#203));
#109=EDGE_CURVE('',#119,#75,#204,.T.);
#110=PRESENTATION_STYLE_ASSIGNMENT((#205));
#111=VERTEX_POINT('',#206);
#112=PRESENTATION_STYLE_ASSIGNMENT((#207));
#113=EDGE_CURVE('',#111,#61,#208,.T.);
#114=PRESENTATION_STYLE_ASSIGNMENT((#209));
#115=VERTEX_POINT('',#210);
#116=PRESENTATION_STYLE_ASSIGNMENT((#211));
#117=EDGE_CURVE('',#115,#103,#212,.T.);
#118=PRESENTATION_STYLE_ASSIGNMENT((#213));
#119=VERTEX_POINT('',#214);
#120=PRESENTATION_STYLE_ASSIGNMENT((#215));
#121=VERTEX_POINT('',#216);
#122=PRESENTATION_STYLE_ASSIGNMENT((#217));
#123=EDGE_CURVE('',#93,#81,#218,.T.);
#124=PRESENTATION_STYLE_ASSIGNMENT((#219));
#125=EDGE_CURVE('',#61,#111,#220,.T.);
#126=PRESENTATION_STYLE_ASSIGNMENT((#221));
#127=ADVANCED_FACE('',(#222),#223,.F.);
#128=PRODUCT('1','1','PART-1-DESC',(#224));
#129=PRODUCT_DEFINITION('NONE','NONE',#225,#2);
#130=AXIS2_PLACEMENT_3D('',#226,#227,#228);
#133=LENGTH_MEASURE_WITH_UNIT(LENGTH_MEASURE(1.0),#229);
#136=DIMENSIONAL_EXPONENTS(1.0,0.0,0.0,0.0,0.0,0.0,0.0);
#138=DIMENSIONAL_EXPONENTS(0.0,0.0,0.0,0.0,0.0,0.0,0.0);
#144=CURVE_STYLE('',#230,POSITIVE_LENGTH_MEASURE(1.0E-006),#231);
#145=LINE('',#232,#233);
#146=POINT_STYLE(' ',#234,POSITIVE_LENGTH_MEASURE(1.0E-006),#235);
#147=CARTESIAN_POINT('',(4.80000000000004,1.25072701749081E-014,-2.8421709430404E-014));
#148=CURVE_STYLE('',#236,POSITIVE_LENGTH_MEASURE(1.0E-006),#237);
#149=CIRCLE('',#238,4.80000000000001);
#150=SURFACE_STYLE_USAGE(.BOTH.,#239);
#151=FACE_OUTER_BOUND('',#240,.T.);
#152=CYLINDRICAL_SURFACE('',#241,8.5);
#153=SURFACE_STYLE_USAGE(.BOTH.,#242);
#154=FACE_OUTER_BOUND('',#243,.T.);
#155=FACE_BOUND('',#244,.T.);
#156=PLANE('',#245);
#157=CURVE_STYLE('',#246,POSITIVE_LENGTH_MEASURE(1.0E-006),#247);
#158=LINE('',#248,#249);
#159=SURFACE_STYLE_USAGE(.BOTH.,#250);
#160=CLOSED_SHELL('',(#91,#77,#127,#97,#67,#65,#99,#95));
#161=CURVE_STYLE('',#251,POSITIVE_LENGTH_MEASURE(1.0E-006),#252);
#162=CIRCLE('',#253,7.25);
#163=POINT_STYLE(' ',#254,POSITIVE_LENGTH_MEASURE(1.0E-006),#255);
#164=CARTESIAN_POINT('',(8.50000000000003,1.3578552100208E-014,3.49999999999997));
#165=SURFACE_STYLE_USAGE(.BOTH.,#256);
#166=FACE_OUTER_BOUND('',#257,.T.);
#167=CYLINDRICAL_SURFACE('',#258,8.5);
#168=CURVE_STYLE('',#259,POSITIVE_LENGTH_MEASURE(1.0E-006),#260);
#169=CIRCLE('',#261,8.5);
#170=POINT_STYLE(' ',#262,POSITIVE_LENGTH_MEASURE(1.0E-006),#263);
#171=CARTESIAN_POINT('',(7.25000000000003,1.321663253085E-014,3.49999999999997));
#172=POINT_STYLE(' ',#264,POSITIVE_LENGTH_MEASURE(1.0E-006),#265);
#173=CARTESIAN_POINT('',(-8.49999999999997,9.86227751590515E-015,-2.8421709430404E-014));
#174=CURVE_STYLE('',#266,POSITIVE_LENGTH_MEASURE(1.0E-006),#267);
#175=CIRCLE('',#268,8.5);
#176=CURVE_STYLE('',#269,POSITIVE_LENGTH_MEASURE(1.0E-006),#270);
#177=CIRCLE('',#271,8.5);
#178=CURVE_STYLE('',#272,POSITIVE_LENGTH_MEASURE(1.0E-006),#273);
#179=LINE('',#274,#275);
#180=SURFACE_STYLE_USAGE(.BOTH.,#276);
#181=FACE_OUTER_BOUND('',#277,.T.);
#182=CYLINDRICAL_SURFACE('',#278,4.80000000000001);
#183=POINT_STYLE(' ',#279,POSITIVE_LENGTH_MEASURE(1.0E-006),#280);
#184=CARTESIAN_POINT('',(-7.24999999999997,1.02296594220519E-014,3.49999999999997));
#185=SURFACE_STYLE_USAGE(.BOTH.,#281);
#186=FACE_OUTER_BOUND('',#282,.T.);
#187=CYLINDRICAL_SURFACE('',#283,4.80000000000001);
#188=SURFACE_STYLE_USAGE(.BOTH.,#284);
#189=FACE_OUTER_BOUND('',#285,.T.);
#190=CONICAL_SURFACE('',#286,6.02500000000001,1.04719755119659);
#191=SURFACE_STYLE_USAGE(.BOTH.,#287);
#192=FACE_BOUND('',#288,.T.);
#193=FACE_OUTER_BOUND('',#289,.T.);
#194=PLANE('',#290);
#195=CURVE_STYLE('',#291,POSITIVE_LENGTH_MEASURE(1.0E-006),#292);
#196=LINE('',#293,#294);
#197=POINT_STYLE(' ',#295,POSITIVE_LENGTH_MEASURE(1.0E-006),#296);
#198=CARTESIAN_POINT('',(-4.79999999999998,1.04430771947546E-014,2.08549184048536));
#199=CURVE_STYLE('',#297,POSITIVE_LENGTH_MEASURE(1.0E-006),#298);
#200=LINE('',#299,#300);
#201=CURVE_STYLE('',#301,POSITIVE_LENGTH_MEASURE(1.0E-006),#302);
#202=CIRCLE('',#303,8.5);
#203=CURVE_STYLE('',#304,POSITIVE_LENGTH_MEASURE(1.0E-006),#305);
#204=LINE('',#306,#307);
#205=POINT_STYLE(' ',#308,POSITIVE_LENGTH_MEASURE(1.0E-006),#309);
#206=CARTESIAN_POINT('',(-4.79999999999998,1.03153818668194E-014,-2.8421709430404E-014));
#207=CURVE_STYLE('',#310,POSITIVE_LENGTH_MEASURE(1.0E-006),#311);
#208=CIRCLE('',#312,4.80000000000001);
#209=POINT_STYLE(' ',#313,POSITIVE_LENGTH_MEASURE(1.0E-006),#314);
#210=CARTESIAN_POINT('',(4.80000000000004,1.25072701749081E-014,2.08549184048536));
#211=CURVE_STYLE('',#315,POSITIVE_LENGTH_MEASURE(1.0E-006),#316);
#212=CIRCLE('',#317,4.80000000000001);
#213=POINT_STYLE(' ',#318,POSITIVE_LENGTH_MEASURE(1.0E-006),#319);
#214=CARTESIAN_POINT('',(8.50000000000003,1.3578552100208E-014,-2.8421709430404E-014));
#215=POINT_STYLE(' ',#320,POSITIVE_LENGTH_MEASURE(1.0E-006),#321);
#216=CARTESIAN_POINT('',(-8.49999999999997,1.00765836278241E-014,3.49999999999997));
#217=CURVE_STYLE('',#322,POSITIVE_LENGTH_MEASURE(1.0E-006),#323);
#218=CIRCLE('',#324,7.25);
#219=CURVE_STYLE('',#325,POSITIVE_LENGTH_MEASURE(1.0E-006),#326);
#220=CIRCLE('',#327,4.80000000000001);
#221=SURFACE_STYLE_USAGE(.BOTH.,#328);
#222=FACE_OUTER_BOUND('',#329,.T.);
#223=CONICAL_SURFACE('',#330,6.02500000000001,1.04719755119659);
#224=PRODUCT_CONTEXT('',#45,'mechanical');
#225=PRODUCT_DEFINITION_FORMATION_WITH_SPECIFIED_SOURCE(' ','NONE',#128,.NOT_KNOWN.);
#226=CARTESIAN_POINT('',(0.0,0.0,0.0));
#227=DIRECTION('',(0.0,0.0,1.0));
#228=DIRECTION('',(1.0,0.0,0.0));
#229= (NAMED_UNIT(#136)LENGTH_UNIT()SI_UNIT(.MILLI.,.METRE.));
#230=DRAUGHTING_PRE_DEFINED_CURVE_FONT('continuous');
#231=COLOUR_RGB('',0.509803950786591,0.509803950786591,0.588235318660736);
#232=CARTESIAN_POINT('',(-8.49999999999997,8.65644595693812E-015,1.74999999999997));
#233=VECTOR('',#332,1.0);
#234=PRE_DEFINED_MARKER('');
#235=COLOUR_RGB('',0.509803950786591,0.509803950786591,0.588235318660736);
#236=DRAUGHTING_PRE_DEFINED_CURVE_FONT('continuous');
#237=COLOUR_RGB('',0.509803950786591,0.509803950786591,0.588235318660736);
#238=AXIS2_PLACEMENT_3D('',#333,#334,#335);
#239=SURFACE_SIDE_STYLE('',(#336));
#240=EDGE_LOOP('',(#337,#338,#339,#340));
#241=AXIS2_PLACEMENT_3D('',#341,#342,#343);
#242=SURFACE_SIDE_STYLE('',(#344));
#243=EDGE_LOOP('',(#345,#346));
#244=EDGE_LOOP('',(#347,#348));
#245=AXIS2_PLACEMENT_3D('',#349,#350,#351);
#246=DRAUGHTING_PRE_DEFINED_CURVE_FONT('continuous');
#247=COLOUR_RGB('',0.509803950786591,0.509803950786591,0.588235318660736);
#248=CARTESIAN_POINT('',(6.02500000000003,1.2861951352879E-014,2.79274592024267));
#249=VECTOR('',#352,1.0);
#250=SURFACE_SIDE_STYLE('',(#353));
#251=DRAUGHTING_PRE_DEFINED_CURVE_FONT('continuous');
#252=COLOUR_RGB('',0.509803950786591,0.509803950786591,0.588235318660736);
#253=AXIS2_PLACEMENT_3D('',#354,#355,#356);
#254=PRE_DEFINED_MARKER('');
#255=COLOUR_RGB('',0.509803950786591,0.509803950786591,0.588235318660736);
#256=SURFACE_SIDE_STYLE('',(#357));
#257=EDGE_LOOP('',(#358,#359,#360,#361));
#258=AXIS2_PLACEMENT_3D('',#362,#363,#364);
#259=DRAUGHTING_PRE_DEFINED_CURVE_FONT('continuous');
#260=COLOUR_RGB('',0.509803950786591,0.509803950786591,0.588235318660736);
#261=AXIS2_PLACEMENT_3D('',#365,#366,#367);
#262=PRE_DEFINED_MARKER('');
#263=COLOUR_RGB('',0.509803950786591,0.509803950786591,0.588235318660736);
#264=PRE_DEFINED_MARKER('');
#265=COLOUR_RGB('',0.509803950786591,0.509803950786591,0.588235318660736);
#266=DRAUGHTING_PRE_DEFINED_CURVE_FONT('continuous');
#267=COLOUR_RGB('',0.509803950786591,0.509803950786591,0.588235318660736);
#268=AXIS2_PLACEMENT_3D('',#368,#369,#370);
#269=DRAUGHTING_PRE_DEFINED_CURVE_FONT('continuous');
#270=COLOUR_RGB('',0.509803950786591,0.509803950786591,0.588235318660736);
#271=AXIS2_PLACEMENT_3D('',#371,#372,#373);
#272=DRAUGHTING_PRE_DEFINED_CURVE_FONT('continuous');
#273=COLOUR_RGB('',0.509803950786591,0.509803950786591,0.588235318660736);
#274=CARTESIAN_POINT('',(-6.02499999999998,9.37304670426712E-015,2.79274592024267));
#275=VECTOR('',#374,1.0);
#276=SURFACE_SIDE_STYLE('',(#375));
#277=EDGE_LOOP('',(#376,#377,#378,#379));
#278=AXIS2_PLACEMENT_3D('',#380,#381,#382);
#279=PRE_DEFINED_MARKER('');
#280=COLOUR_RGB('',0.509803950786591,0.509803950786591,0.588235318660736);
#281=SURFACE_SIDE_STYLE('',(#383));
#282=EDGE_LOOP('',(#384,#385,#386,#387));
#283=AXIS2_PLACEMENT_3D('',#388,#389,#390);
#284=SURFACE_SIDE_STYLE('',(#391));
#285=EDGE_LOOP('',(#392,#393,#394,#395));
#286=AXIS2_PLACEMENT_3D('',#396,#397,#398);
#287=SURFACE_SIDE_STYLE('',(#399));
#288=EDGE_LOOP('',(#400,#401));
#289=EDGE_LOOP('',(#402,#403));
#290=AXIS2_PLACEMENT_3D('',#404,#405,#406);
#291=DRAUGHTING_PRE_DEFINED_CURVE_FONT('continuous');
#292=COLOUR_RGB('',0.509803950786591,0.509803950786591,0.588235318660736);
#293=CARTESIAN_POINT('',(4.80000000000004,1.25072701749081E-014,1.04274592024267));
#294=VECTOR('',#407,1.0);
#295=PRE_DEFINED_MARKER('');
#296=COLOUR_RGB('',0.509803950786591,0.509803950786591,0.588235318660736);
#297=DRAUGHTING_PRE_DEFINED_CURVE_FONT('continuous');
#298=COLOUR_RGB('',0.509803950786591,0.509803950786591,0.588235318660736);
#299=CARTESIAN_POINT('',(-4.79999999999998,9.72772788223804E-015,1.04274592024267));
#300=VECTOR('',#408,1.0);
#301=DRAUGHTING_PRE_DEFINED_CURVE_FONT('continuous');
#302=COLOUR_RGB('',0.509803950786591,0.509803950786591,0.588235318660736);
#303=AXIS2_PLACEMENT_3D('',#409,#410,#411);
#304=DRAUGHTING_PRE_DEFINED_CURVE_FONT('continuous');
#305=COLOUR_RGB('',0.509803950786591,0.509803950786591,0.588235318660736);
#306=CARTESIAN_POINT('',(8.50000000000003,1.3578552100208E-014,1.74999999999997));
#307=VECTOR('',#412,1.0);
#308=PRE_DEFINED_MARKER('');
#309=COLOUR_RGB('',0.509803950786591,0.509803950786591,0.588235318660736);
#310=DRAUGHTING_PRE_DEFINED_CURVE_FONT('continuous');
#311=COLOUR_RGB('',0.509803950786591,0.509803950786591,0.588235318660736);
#312=AXIS2_PLACEMENT_3D('',#413,#414,#415);
#313=PRE_DEFINED_MARKER('');
#314=COLOUR_RGB('',0.509803950786591,0.509803950786591,0.588235318660736);
#315=DRAUGHTING_PRE_DEFINED_CURVE_FONT('continuous');
#316=COLOUR_RGB('',0.509803950786591,0.509803950786591,0.588235318660736);
#317=AXIS2_PLACEMENT_3D('',#416,#417,#418);
#318=PRE_DEFINED_MARKER('');
#319=COLOUR_RGB('',0.509803950786591,0.509803950786591,0.588235318660736);
#320=PRE_DEFINED_MARKER('');
#321=COLOUR_RGB('',0.509803950786591,0.509803950786591,0.588235318660736);
#322=DRAUGHTING_PRE_DEFINED_CURVE_FONT('continuous');
#323=COLOUR_RGB('',0.509803950786591,0.509803950786591,0.588235318660736);
#324=AXIS2_PLACEMENT_3D('',#419,#420,#421);
#325=DRAUGHTING_PRE_DEFINED_CURVE_FONT('continuous');
#326=COLOUR_RGB('',0.509803950786591,0.509803950786591,0.588235318660736);
#327=AXIS2_PLACEMENT_3D('',#422,#423,#424);
#328=SURFACE_SIDE_STYLE('',(#425));
#329=EDGE_LOOP('',(#426,#427,#428,#429));
#330=AXIS2_PLACEMENT_3D('',#430,#431,#432);
#332=DIRECTION('',(0.0,0.0,-1.0));
#333=CARTESIAN_POINT('',(2.8421709430404E-014,1.11174990285731E-014,2.08549184048536));
#334=DIRECTION('',(-0.0,0.0,-1.0));
#335=DIRECTION('',(-1.0,-1.67075020104228E-016,0.0));
#336=SURFACE_STYLE_FILL_AREA(#433);
#337=ORIENTED_EDGE('',*,*,#59,.T.);
#338=ORIENTED_EDGE('',*,*,#79,.F.);
#339=ORIENTED_EDGE('',*,*,#109,.T.);
#340=ORIENTED_EDGE('',*,*,#85,.T.);
#341=CARTESIAN_POINT('',(2.8421709430404E-014,1.11174990285731E-014,1.74999999999997));
#342=DIRECTION('',(0.0,-0.0,1.0));
#343=DIRECTION('',(-1.0,-1.67075020104228E-016,0.0));
#344=SURFACE_STYLE_FILL_AREA(#434);
#345=ORIENTED_EDGE('',*,*,#87,.F.);
#346=ORIENTED_EDGE('',*,*,#85,.F.);
#347=ORIENTED_EDGE('',*,*,#123,.T.);
#348=ORIENTED_EDGE('',*,*,#73,.T.);
#349=CARTESIAN_POINT('',(-7.87499999999997,1.0153121524938E-014,3.49999999999997));
#350=DIRECTION('',(0.0,0.0,1.0));
#351=DIRECTION('',(-1.0,-1.22460635382238E-016,0.0));
#352=DIRECTION('',(0.866025403784433,2.50745232952657E-016,0.500000000000009));
#353=SURFACE_STYLE_FILL_AREA(#435);
#354=CARTESIAN_POINT('',(2.8421709430404E-014,1.11174990285731E-014,3.49999999999997));
#355=DIRECTION('',(-0.0,0.0,-1.0));
#356=DIRECTION('',(-1.0,-1.67075020104228E-016,0.0));
#357=SURFACE_STYLE_FILL_AREA(#436);
#358=ORIENTED_EDGE('',*,*,#59,.F.);
#359=ORIENTED_EDGE('',*,*,#87,.T.);
#360=ORIENTED_EDGE('',*,*,#109,.F.);
#361=ORIENTED_EDGE('',*,*,#107,.F.);
#362=CARTESIAN_POINT('',(2.8421709430404E-014,1.11174990285731E-014,1.74999999999997));
#363=DIRECTION('',(0.0,-0.0,1.0));
#364=DIRECTION('',(-1.0,-1.67075020104228E-016,0.0));
#365=CARTESIAN_POINT('',(2.8421709430404E-014,1.11174990285731E-014,-2.8421709430404E-014));
#366=DIRECTION('',(-0.0,0.0,-1.0));
#367=DIRECTION('',(-1.0,-1.67075020104228E-016,0.0));
#368=CARTESIAN_POINT('',(2.8421709430404E-014,1.11174990285731E-014,3.49999999999997));
#369=DIRECTION('',(-0.0,0.0,-1.0));
#370=DIRECTION('',(-1.0,-1.67075020104228E-016,0.0));
#371=CARTESIAN_POINT('',(2.8421709430404E-014,1.11174990285731E-014,3.49999999999997));
#372=DIRECTION('',(-0.0,0.0,-1.0));
#373=DIRECTION('',(-1.0,-1.67075020104228E-016,0.0));
#374=DIRECTION('',(0.866025403784433,2.50745232952657E-016,-0.500000000000009));
#375=SURFACE_STYLE_FILL_AREA(#437);
#376=ORIENTED_EDGE('',*,*,#105,.F.);
#377=ORIENTED_EDGE('',*,*,#117,.F.);
#378=ORIENTED_EDGE('',*,*,#101,.F.);
#379=ORIENTED_EDGE('',*,*,#125,.T.);
#380=CARTESIAN_POINT('',(2.8421709430404E-014,1.11174990285731E-014,1.04274592024267));
#381=DIRECTION('',(0.0,-0.0,1.0));
#382=DIRECTION('',(-1.0,-1.67075020104228E-016,0.0));
#383=SURFACE_STYLE_FILL_AREA(#438);
#384=ORIENTED_EDGE('',*,*,#105,.T.);
#385=ORIENTED_EDGE('',*,*,#113,.T.);
#386=ORIENTED_EDGE('',*,*,#101,.T.);
#387=ORIENTED_EDGE('',*,*,#63,.F.);
#388=CARTESIAN_POINT('',(2.8421709430404E-014,1.11174990285731E-014,1.04274592024267));
#389=DIRECTION('',(0.0,-0.0,1.0));
#390=DIRECTION('',(-1.0,-1.67075020104228E-016,0.0));
#391=SURFACE_STYLE_FILL_AREA(#439);
#392=ORIENTED_EDGE('',*,*,#89,.T.);
#393=ORIENTED_EDGE('',*,*,#63,.T.);
#394=ORIENTED_EDGE('',*,*,#69,.T.);
#395=ORIENTED_EDGE('',*,*,#123,.F.);
#396=CARTESIAN_POINT('',(2.8421709430404E-014,1.11174990285731E-014,2.79274592024267));
#397=DIRECTION('',(0.0,-0.0,1.0));
#398=DIRECTION('',(-1.0,-1.67075020104228E-016,0.0));
#399=SURFACE_STYLE_FILL_AREA(#440);
#400=ORIENTED_EDGE('',*,*,#113,.F.);
#401=ORIENTED_EDGE('',*,*,#125,.F.);
#402=ORIENTED_EDGE('',*,*,#107,.T.);
#403=ORIENTED_EDGE('',*,*,#79,.T.);
#404=CARTESIAN_POINT('',(-6.64999999999998,1.00888296913623E-014,-2.8421709430404E-014));
#405=DIRECTION('',(0.0,0.0,-1.0));
#406=DIRECTION('',(1.0,1.22460635382238E-016,0.0));
#407=DIRECTION('',(0.0,0.0,1.0));
#408=DIRECTION('',(0.0,0.0,-1.0));
#409=CARTESIAN_POINT('',(2.8421709430404E-014,1.11174990285731E-014,-2.8421709430404E-014));
#410=DIRECTION('',(-0.0,0.0,-1.0));
#411=DIRECTION('',(-1.0,-1.67075020104228E-016,0.0));
#412=DIRECTION('',(-0.0,-0.0,1.0));
#413=CARTESIAN_POINT('',(2.8421709430404E-014,1.11174990285731E-014,-2.8421709430404E-014));
#414=DIRECTION('',(-0.0,0.0,-1.0));
#415=DIRECTION('',(-1.0,-1.67075020104228E-016,0.0));
#416=CARTESIAN_POINT('',(2.8421709430404E-014,1.11174990285731E-014,2.08549184048536));
#417=DIRECTION('',(-0.0,0.0,-1.0));
#418=DIRECTION('',(-1.0,-1.67075020104228E-016,0.0));
#419=CARTESIAN_POINT('',(2.8421709430404E-014,1.11174990285731E-014,3.49999999999997));
#420=DIRECTION('',(-0.0,0.0,-1.0));
#421=DIRECTION('',(-1.0,-1.67075020104228E-016,0.0));
#422=CARTESIAN_POINT('',(2.8421709430404E-014,1.11174990285731E-014,-2.8421709430404E-014));
#423=DIRECTION('',(-0.0,0.0,-1.0));
#424=DIRECTION('',(-1.0,-1.67075020104228E-016,0.0));
#425=SURFACE_STYLE_FILL_AREA(#441);
#426=ORIENTED_EDGE('',*,*,#89,.F.);
#427=ORIENTED_EDGE('',*,*,#73,.F.);
#428=ORIENTED_EDGE('',*,*,#69,.F.);
#429=ORIENTED_EDGE('',*,*,#117,.T.);
#430=CARTESIAN_POINT('',(2.8421709430404E-014,1.11174990285731E-014,2.79274592024267));
#431=DIRECTION('',(0.0,-0.0,1.0));
#432=DIRECTION('',(-1.0,-1.67075020104228E-016,0.0));
#433=FILL_AREA_STYLE('',(#442));
#434=FILL_AREA_STYLE('',(#443));
#435=FILL_AREA_STYLE('',(#444));
#436=FILL_AREA_STYLE('',(#445));
#437=FILL_AREA_STYLE('',(#446));
#438=FILL_AREA_STYLE('',(#447));
#439=FILL_AREA_STYLE('',(#448));
#440=FILL_AREA_STYLE('',(#449));
#441=FILL_AREA_STYLE('',(#450));
#442=FILL_AREA_STYLE_COLOUR('',#451);
#443=FILL_AREA_STYLE_COLOUR('',#452);
#444=FILL_AREA_STYLE_COLOUR('',#453);
#445=FILL_AREA_STYLE_COLOUR('',#454);
#446=FILL_AREA_STYLE_COLOUR('',#455);
#447=FILL_AREA_STYLE_COLOUR('',#456);
#448=FILL_AREA_STYLE_COLOUR('',#457);
#449=FILL_AREA_STYLE_COLOUR('',#458);
#450=FILL_AREA_STYLE_COLOUR('',#459);
#451=COLOUR_RGB('',0.509803950786591,0.509803950786591,0.588235318660736);
#452=COLOUR_RGB('',0.509803950786591,0.509803950786591,0.588235318660736);
#453=COLOUR_RGB('',0.509803950786591,0.509803950786591,0.588235318660736);
#454=COLOUR_RGB('',0.509803950786591,0.509803950786591,0.588235318660736);
#455=COLOUR_RGB('',0.509803950786591,0.509803950786591,0.588235318660736);
#456=COLOUR_RGB('',0.509803950786591,0.509803950786591,0.588235318660736);
#457=COLOUR_RGB('',0.509803950786591,0.509803950786591,0.588235318660736);
#458=COLOUR_RGB('',0.509803950786591,0.509803950786591,0.588235318660736);
#459=COLOUR_RGB('',0.509803950786591,0.509803950786591,0.588235318660736);
ENDSEC;
END-ISO-10303-21;
