ISO-10303-21;
HEADER;
FILE_DESCRIPTION(('STEP AP214'),'1');
FILE_NAME(' ','  ',('TraceParts'),('TraceParts S.A.'),'XStep 1.0',' ',' ');
FILE_SCHEMA(('automotive_design'));
ENDSEC;
DATA;
#1=MECHANICAL_DESIGN_GEOMETRIC_PRESENTATION_REPRESENTATION(' ',(#10,#11,#12,#13,#14,#15,#16,#17,#18,#19,#20,#21,#22,#23,#24,#25,#26,#27,#28,#29,#30,#31,#32,#33,#34,#35,#36,#37,#38,#39,#40,#41,#42,#43,#44),#6);
#2=PRODUCT_DEFINITION_CONTEXT('',#45,'design');
#3=APPLICATION_PROTOCOL_DEFINITION('INTERNATIONAL STANDARD','automotive_design',1994,#45);
#4=PRODUCT_CATEGORY_RELATIONSHIP('NONE','NONE',#46,#47);
#5=SHAPE_DEFINITION_REPRESENTATION(#48,#49);
#6= (GEOMETRIC_REPRESENTATION_CONTEXT(3)GLOBAL_UNCERTAINTY_ASSIGNED_CONTEXT((#52))GLOBAL_UNIT_ASSIGNED_CONTEXT((#54,#55,#56))REPRESENTATION_CONTEXT('NONE','WORKSPACE'));
#10=STYLED_ITEM('',(#58),#59);
#11=STYLED_ITEM('',(#60),#61);
#12=STYLED_ITEM('',(#62),#63);
#13=STYLED_ITEM('',(#64),#65);
#14=STYLED_ITEM('',(#66),#67);
#15=STYLED_ITEM('',(#68),#69);
#16=STYLED_ITEM('',(#70),#71);
#17=STYLED_ITEM('',(#72),#73);
#18=STYLED_ITEM('',(#74),#75);
#19=STYLED_ITEM('',(#76),#77);
#20=STYLED_ITEM('',(#78),#79);
#21=STYLED_ITEM('',(#80),#81);
#22=STYLED_ITEM('',(#82),#83);
#23=STYLED_ITEM('',(#84),#85);
#24=STYLED_ITEM('',(#86),#87);
#25=STYLED_ITEM('',(#88),#89);
#26=STYLED_ITEM('',(#90),#91);
#27=STYLED_ITEM('',(#92),#93);
#28=STYLED_ITEM('',(#94),#95);
#29=STYLED_ITEM('',(#96),#97);
#30=STYLED_ITEM('',(#98),#99);
#31=STYLED_ITEM('',(#100),#101);
#32=STYLED_ITEM('',(#102),#103);
#33=STYLED_ITEM('',(#104),#105);
#34=STYLED_ITEM('',(#106),#107);
#35=STYLED_ITEM('',(#108),#109);
#36=STYLED_ITEM('',(#110),#111);
#37=STYLED_ITEM('',(#112),#113);
#38=STYLED_ITEM('',(#114),#115);
#39=STYLED_ITEM('',(#116),#117);
#40=STYLED_ITEM('',(#118),#119);
#41=STYLED_ITEM('',(#120),#121);
#42=STYLED_ITEM('',(#122),#123);
#43=STYLED_ITEM('',(#124),#125);
#44=STYLED_ITEM('',(#126),#127);
#45=APPLICATION_CONTEXT(' ');
#46=PRODUCT_CATEGORY('part','NONE');
#47=PRODUCT_RELATED_PRODUCT_CATEGORY('detail',' ',(#128));
#48=PRODUCT_DEFINITION_SHAPE('NONE','NONE',#129);
#49=ADVANCED_BREP_SHAPE_REPRESENTATION('1',(#69,#130),#6);
#52=UNCERTAINTY_MEASURE_WITH_UNIT(LENGTH_MEASURE(1.0E-006),#54,'','');
#54= (CONVERSION_BASED_UNIT('MILLIMETRE',#133)LENGTH_UNIT()NAMED_UNIT(#136));
#55= (NAMED_UNIT(#138)PLANE_ANGLE_UNIT()SI_UNIT($,.RADIAN.));
#56= (NAMED_UNIT(#138)SOLID_ANGLE_UNIT()SI_UNIT($,.STERADIAN.));
#58=PRESENTATION_STYLE_ASSIGNMENT((#144));
#59=EDGE_CURVE('',#65,#119,#145,.T.);
#60=PRESENTATION_STYLE_ASSIGNMENT((#146));
#61=VERTEX_POINT('',#147);
#62=PRESENTATION_STYLE_ASSIGNMENT((#148));
#63=EDGE_CURVE('',#109,#87,#149,.T.);
#64=PRESENTATION_STYLE_ASSIGNMENT((#150));
#65=VERTEX_POINT('',#151);
#66=PRESENTATION_STYLE_ASSIGNMENT((#152));
#67=EDGE_CURVE('',#99,#127,#153,.T.);
#68=PRESENTATION_STYLE_ASSIGNMENT((#154));
#69=MANIFOLD_SOLID_BREP('1',#155);
#70=PRESENTATION_STYLE_ASSIGNMENT((#156));
#71=ADVANCED_FACE('',(#157),#158,.T.);
#72=PRESENTATION_STYLE_ASSIGNMENT((#159));
#73=EDGE_CURVE('',#123,#107,#160,.T.);
#74=PRESENTATION_STYLE_ASSIGNMENT((#161));
#75=EDGE_CURVE('',#119,#65,#162,.T.);
#76=PRESENTATION_STYLE_ASSIGNMENT((#163));
#77=EDGE_CURVE('',#61,#105,#164,.T.);
#78=PRESENTATION_STYLE_ASSIGNMENT((#165));
#79=EDGE_CURVE('',#105,#61,#166,.T.);
#80=PRESENTATION_STYLE_ASSIGNMENT((#167));
#81=EDGE_CURVE('',#105,#107,#168,.T.);
#82=PRESENTATION_STYLE_ASSIGNMENT((#169));
#83=ADVANCED_FACE('',(#170),#171,.F.);
#84=PRESENTATION_STYLE_ASSIGNMENT((#172));
#85=ADVANCED_FACE('',(#173),#174,.T.);
#86=PRESENTATION_STYLE_ASSIGNMENT((#175));
#87=VERTEX_POINT('',#176);
#88=PRESENTATION_STYLE_ASSIGNMENT((#177));
#89=ADVANCED_FACE('',(#178,#179),#180,.T.);
#90=PRESENTATION_STYLE_ASSIGNMENT((#181));
#91=EDGE_CURVE('',#61,#65,#182,.T.);
#92=PRESENTATION_STYLE_ASSIGNMENT((#183));
#93=EDGE_CURVE('',#127,#99,#184,.T.);
#94=PRESENTATION_STYLE_ASSIGNMENT((#185));
#95=EDGE_CURVE('',#107,#123,#186,.T.);
#96=PRESENTATION_STYLE_ASSIGNMENT((#187));
#97=ADVANCED_FACE('',(#188),#189,.F.);
#98=PRESENTATION_STYLE_ASSIGNMENT((#190));
#99=VERTEX_POINT('',#191);
#100=PRESENTATION_STYLE_ASSIGNMENT((#192));
#101=ADVANCED_FACE('',(#193),#194,.F.);
#102=PRESENTATION_STYLE_ASSIGNMENT((#195));
#103=EDGE_CURVE('',#109,#99,#196,.T.);
#104=PRESENTATION_STYLE_ASSIGNMENT((#197));
#105=VERTEX_POINT('',#198);
#106=PRESENTATION_STYLE_ASSIGNMENT((#199));
#107=VERTEX_POINT('',#200);
#108=PRESENTATION_STYLE_ASSIGNMENT((#201));
#109=VERTEX_POINT('',#202);
#110=PRESENTATION_STYLE_ASSIGNMENT((#203));
#111=ADVANCED_FACE('',(#204,#205),#206,.T.);
#112=PRESENTATION_STYLE_ASSIGNMENT((#207));
#113=EDGE_CURVE('',#87,#109,#208,.T.);
#114=PRESENTATION_STYLE_ASSIGNMENT((#209));
#115=EDGE_CURVE('',#123,#61,#210,.T.);
#116=PRESENTATION_STYLE_ASSIGNMENT((#211));
#117=EDGE_CURVE('',#127,#87,#212,.T.);
#118=PRESENTATION_STYLE_ASSIGNMENT((#213));
#119=VERTEX_POINT('',#214);
#120=PRESENTATION_STYLE_ASSIGNMENT((#215));
#121=ADVANCED_FACE('',(#216),#217,.F.);
#122=PRESENTATION_STYLE_ASSIGNMENT((#218));
#123=VERTEX_POINT('',#219);
#124=PRESENTATION_STYLE_ASSIGNMENT((#220));
#125=EDGE_CURVE('',#119,#105,#221,.T.);
#126=PRESENTATION_STYLE_ASSIGNMENT((#222));
#127=VERTEX_POINT('',#223);
#128=PRODUCT('1','1','PART-1-DESC',(#224));
#129=PRODUCT_DEFINITION('NONE','NONE',#225,#2);
#130=AXIS2_PLACEMENT_3D('',#226,#227,#228);
#133=LENGTH_MEASURE_WITH_UNIT(LENGTH_MEASURE(1.0),#229);
#136=DIMENSIONAL_EXPONENTS(1.0,0.0,0.0,0.0,0.0,0.0,0.0);
#138=DIMENSIONAL_EXPONENTS(0.0,0.0,0.0,0.0,0.0,0.0,0.0);
#144=CURVE_STYLE('',#230,POSITIVE_LENGTH_MEASURE(1.0E-006),#231);
#145=CIRCLE('',#232,11.6000000000001);
#146=POINT_STYLE(' ',#233,POSITIVE_LENGTH_MEASURE(1.0E-006),#234);
#147=CARTESIAN_POINT('',(-11.6,1.08859618526182E-014,5.74833395016046));
#148=CURVE_STYLE('',#235,POSITIVE_LENGTH_MEASURE(1.0E-006),#236);
#149=CIRCLE('',#237,25.0);
#150=POINT_STYLE(' ',#238,POSITIVE_LENGTH_MEASURE(1.0E-006),#239);
#151=CARTESIAN_POINT('',(-11.6,1.05339895386552E-014,-2.8421709430404E-014));
#152=CURVE_STYLE('',#240,POSITIVE_LENGTH_MEASURE(1.0E-006),#241);
#153=CIRCLE('',#242,25.0);
#154=SURFACE_STYLE_USAGE(.BOTH.,#243);
#155=CLOSED_SHELL('',(#121,#85,#97,#83,#111,#71,#89,#101));
#156=SURFACE_STYLE_USAGE(.BOTH.,#244);
#157=FACE_OUTER_BOUND('',#245,.T.);
#158=CYLINDRICAL_SURFACE('',#246,25.0);
#159=CURVE_STYLE('',#247,POSITIVE_LENGTH_MEASURE(1.0E-006),#248);
#160=CIRCLE('',#249,15.5);
#161=CURVE_STYLE('',#250,POSITIVE_LENGTH_MEASURE(1.0E-006),#251);
#162=CIRCLE('',#252,11.6000000000001);
#163=CURVE_STYLE('',#253,POSITIVE_LENGTH_MEASURE(1.0E-006),#254);
#164=CIRCLE('',#255,11.6000000000001);
#165=CURVE_STYLE('',#256,POSITIVE_LENGTH_MEASURE(1.0E-006),#257);
#166=CIRCLE('',#258,11.6000000000001);
#167=CURVE_STYLE('',#259,POSITIVE_LENGTH_MEASURE(1.0E-006),#260);
#168=LINE('',#261,#262);
#169=SURFACE_STYLE_USAGE(.BOTH.,#263);
#170=FACE_OUTER_BOUND('',#264,.T.);
#171=CONICAL_SURFACE('',#265,13.55,1.04719755119659);
#172=SURFACE_STYLE_USAGE(.BOTH.,#266);
#173=FACE_OUTER_BOUND('',#267,.T.);
#174=CYLINDRICAL_SURFACE('',#268,25.0);
#175=POINT_STYLE(' ',#269,POSITIVE_LENGTH_MEASURE(1.0E-006),#270);
#176=CARTESIAN_POINT('',(-24.9999999999999,8.89301702453324E-015,-2.8421709430404E-014));
#177=SURFACE_STYLE_USAGE(.BOTH.,#271);
#178=FACE_BOUND('',#272,.T.);
#179=FACE_OUTER_BOUND('',#273,.T.);
#180=PLANE('',#274);
#181=CURVE_STYLE('',#275,POSITIVE_LENGTH_MEASURE(1.0E-006),#276);
#182=LINE('',#277,#278);
#183=CURVE_STYLE('',#279,POSITIVE_LENGTH_MEASURE(1.0E-006),#280);
#184=CIRCLE('',#281,25.0);
#185=CURVE_STYLE('',#282,POSITIVE_LENGTH_MEASURE(1.0E-006),#283);
#186=CIRCLE('',#284,15.5);
#187=SURFACE_STYLE_USAGE(.BOTH.,#285);
#188=FACE_OUTER_BOUND('',#286,.T.);
#189=CONICAL_SURFACE('',#287,13.55,1.04719755119659);
#190=POINT_STYLE(' ',#288,POSITIVE_LENGTH_MEASURE(1.0E-006),#289);
#191=CARTESIAN_POINT('',(25.0000000000001,1.96221693222791E-014,7.99999999999997));
#192=SURFACE_STYLE_USAGE(.BOTH.,#290);
#193=FACE_OUTER_BOUND('',#291,.T.);
#194=CYLINDRICAL_SURFACE('',#292,11.6000000000001);
#195=CURVE_STYLE('',#293,POSITIVE_LENGTH_MEASURE(1.0E-006),#294);
#196=LINE('',#295,#296);
#197=POINT_STYLE(' ',#297,POSITIVE_LENGTH_MEASURE(1.0E-006),#298);
#198=CARTESIAN_POINT('',(11.6000000000001,1.57748718070688E-014,5.74833395016046));
#199=POINT_STYLE(' ',#299,POSITIVE_LENGTH_MEASURE(1.0E-006),#300);
#200=CARTESIAN_POINT('',(15.5000000000001,1.68946076510479E-014,7.99999999999997));
#201=POINT_STYLE(' ',#301,POSITIVE_LENGTH_MEASURE(1.0E-006),#302);
#202=CARTESIAN_POINT('',(25.0000000000001,1.96221693222791E-014,-2.8421709430404E-014));
#203=SURFACE_STYLE_USAGE(.BOTH.,#303);
#204=FACE_OUTER_BOUND('',#304,.T.);
#205=FACE_BOUND('',#305,.T.);
#206=PLANE('',#306);
#207=CURVE_STYLE('',#307,POSITIVE_LENGTH_MEASURE(1.0E-006),#308);
#208=CIRCLE('',#309,25.0);
#209=CURVE_STYLE('',#310,POSITIVE_LENGTH_MEASURE(1.0E-006),#311);
#210=LINE('',#312,#313);
#211=CURVE_STYLE('',#314,POSITIVE_LENGTH_MEASURE(1.0E-006),#315);
#212=LINE('',#316,#317);
#213=POINT_STYLE(' ',#318,POSITIVE_LENGTH_MEASURE(1.0E-006),#319);
#214=CARTESIAN_POINT('',(11.6000000000001,1.57748718070688E-014,-2.8421709430404E-014));
#215=SURFACE_STYLE_USAGE(.BOTH.,#320);
#216=FACE_OUTER_BOUND('',#321,.T.);
#217=CYLINDRICAL_SURFACE('',#322,11.6000000000001);
#218=POINT_STYLE(' ',#323,POSITIVE_LENGTH_MEASURE(1.0E-006),#324);
#219=CARTESIAN_POINT('',(-15.4999999999999,1.05462356021935E-014,7.99999999999997));
#220=CURVE_STYLE('',#325,POSITIVE_LENGTH_MEASURE(1.0E-006),#326);
#221=LINE('',#327,#328);
#222=POINT_STYLE(' ',#329,POSITIVE_LENGTH_MEASURE(1.0E-006),#330);
#223=CARTESIAN_POINT('',(-24.9999999999999,9.38285956606219E-015,7.99999999999997));
#224=PRODUCT_CONTEXT('',#45,'mechanical');
#225=PRODUCT_DEFINITION_FORMATION_WITH_SPECIFIED_SOURCE(' ','NONE',#128,.NOT_KNOWN.);
#226=CARTESIAN_POINT('',(0.0,0.0,0.0));
#227=DIRECTION('',(0.0,0.0,1.0));
#228=DIRECTION('',(1.0,0.0,0.0));
#229= (NAMED_UNIT(#136)LENGTH_UNIT()SI_UNIT(.MILLI.,.METRE.));
#230=DRAUGHTING_PRE_DEFINED_CURVE_FONT('continuous');
#231=COLOUR_RGB('',0.509803950786591,0.509803950786591,0.588235318660736);
#232=AXIS2_PLACEMENT_3D('',#332,#333,#334);
#233=PRE_DEFINED_MARKER('');
#234=COLOUR_RGB('',0.509803950786591,0.509803950786591,0.588235318660736);
#235=DRAUGHTING_PRE_DEFINED_CURVE_FONT('continuous');
#236=COLOUR_RGB('',0.509803950786591,0.509803950786591,0.588235318660736);
#237=AXIS2_PLACEMENT_3D('',#335,#336,#337);
#238=PRE_DEFINED_MARKER('');
#239=COLOUR_RGB('',0.509803950786591,0.509803950786591,0.588235318660736);
#240=DRAUGHTING_PRE_DEFINED_CURVE_FONT('continuous');
#241=COLOUR_RGB('',0.509803950786591,0.509803950786591,0.588235318660736);
#242=AXIS2_PLACEMENT_3D('',#338,#339,#340);
#243=SURFACE_SIDE_STYLE('',(#341));
#244=SURFACE_SIDE_STYLE('',(#342));
#245=EDGE_LOOP('',(#343,#344,#345,#346));
#246=AXIS2_PLACEMENT_3D('',#347,#348,#349);
#247=DRAUGHTING_PRE_DEFINED_CURVE_FONT('continuous');
#248=COLOUR_RGB('',0.509803950786591,0.509803950786591,0.588235318660736);
#249=AXIS2_PLACEMENT_3D('',#350,#351,#352);
#250=DRAUGHTING_PRE_DEFINED_CURVE_FONT('continuous');
#251=COLOUR_RGB('',0.509803950786591,0.509803950786591,0.588235318660736);
#252=AXIS2_PLACEMENT_3D('',#353,#354,#355);
#253=DRAUGHTING_PRE_DEFINED_CURVE_FONT('continuous');
#254=COLOUR_RGB('',0.509803950786591,0.509803950786591,0.588235318660736);
#255=AXIS2_PLACEMENT_3D('',#356,#357,#358);
#256=DRAUGHTING_PRE_DEFINED_CURVE_FONT('continuous');
#257=COLOUR_RGB('',0.509803950786591,0.509803950786591,0.588235318660736);
#258=AXIS2_PLACEMENT_3D('',#359,#360,#361);
#259=DRAUGHTING_PRE_DEFINED_CURVE_FONT('continuous');
#260=COLOUR_RGB('',0.509803950786591,0.509803950786591,0.588235318660736);
#261=CARTESIAN_POINT('',(13.5500000000001,1.63347397290584E-014,6.87416697508021));
#262=VECTOR('',#362,1.0);
#263=SURFACE_SIDE_STYLE('',(#363));
#264=EDGE_LOOP('',(#364,#365,#366,#367));
#265=AXIS2_PLACEMENT_3D('',#368,#369,#370);
#266=SURFACE_SIDE_STYLE('',(#371));
#267=EDGE_LOOP('',(#372,#373,#374,#375));
#268=AXIS2_PLACEMENT_3D('',#376,#377,#378);
#269=PRE_DEFINED_MARKER('');
#270=COLOUR_RGB('',0.509803950786591,0.509803950786591,0.588235318660736);
#271=SURFACE_SIDE_STYLE('',(#379));
#272=EDGE_LOOP('',(#380,#381));
#273=EDGE_LOOP('',(#382,#383));
#274=AXIS2_PLACEMENT_3D('',#384,#385,#386);
#275=DRAUGHTING_PRE_DEFINED_CURVE_FONT('continuous');
#276=COLOUR_RGB('',0.509803950786591,0.509803950786591,0.588235318660736);
#277=CARTESIAN_POINT('',(-11.6,9.11387909416743E-015,2.87416697508021));
#278=VECTOR('',#387,1.0);
#279=DRAUGHTING_PRE_DEFINED_CURVE_FONT('continuous');
#280=COLOUR_RGB('',0.509803950786591,0.509803950786591,0.588235318660736);
#281=AXIS2_PLACEMENT_3D('',#388,#389,#390);
#282=DRAUGHTING_PRE_DEFINED_CURVE_FONT('continuous');
#283=COLOUR_RGB('',0.509803950786591,0.509803950786591,0.588235318660736);
#284=AXIS2_PLACEMENT_3D('',#391,#392,#393);
#285=SURFACE_SIDE_STYLE('',(#394));
#286=EDGE_LOOP('',(#395,#396,#397,#398));
#287=AXIS2_PLACEMENT_3D('',#399,#400,#401);
#288=PRE_DEFINED_MARKER('');
#289=COLOUR_RGB('',0.509803950786591,0.509803950786591,0.588235318660736);
#290=SURFACE_SIDE_STYLE('',(#402));
#291=EDGE_LOOP('',(#403,#404,#405,#406));
#292=AXIS2_PLACEMENT_3D('',#407,#408,#409);
#293=DRAUGHTING_PRE_DEFINED_CURVE_FONT('continuous');
#294=COLOUR_RGB('',0.509803950786591,0.509803950786591,0.588235318660736);
#295=CARTESIAN_POINT('',(25.0000000000001,1.96221693222791E-014,3.99999999999997));
#296=VECTOR('',#410,1.0);
#297=PRE_DEFINED_MARKER('');
#298=COLOUR_RGB('',0.509803950786591,0.509803950786591,0.588235318660736);
#299=PRE_DEFINED_MARKER('');
#300=COLOUR_RGB('',0.509803950786591,0.509803950786591,0.588235318660736);
#301=PRE_DEFINED_MARKER('');
#302=COLOUR_RGB('',0.509803950786591,0.509803950786591,0.588235318660736);
#303=SURFACE_SIDE_STYLE('',(#411));
#304=EDGE_LOOP('',(#412,#413));
#305=EDGE_LOOP('',(#414,#415));
#306=AXIS2_PLACEMENT_3D('',#416,#417,#418);
#307=DRAUGHTING_PRE_DEFINED_CURVE_FONT('continuous');
#308=COLOUR_RGB('',0.509803950786591,0.509803950786591,0.588235318660736);
#309=AXIS2_PLACEMENT_3D('',#419,#420,#421);
#310=DRAUGHTING_PRE_DEFINED_CURVE_FONT('continuous');
#311=COLOUR_RGB('',0.509803950786591,0.509803950786591,0.588235318660736);
#312=CARTESIAN_POINT('',(-13.55,8.55401117217788E-015,6.87416697508021));
#313=VECTOR('',#422,1.0);
#314=DRAUGHTING_PRE_DEFINED_CURVE_FONT('continuous');
#315=COLOUR_RGB('',0.509803950786591,0.509803950786591,0.588235318660736);
#316=CARTESIAN_POINT('',(-24.9999999999999,5.26658157895717E-015,3.99999999999997));
#317=VECTOR('',#423,1.0);
#318=PRE_DEFINED_MARKER('');
#319=COLOUR_RGB('',0.509803950786591,0.509803950786591,0.588235318660736);
#320=SURFACE_SIDE_STYLE('',(#424));
#321=EDGE_LOOP('',(#425,#426,#427,#428));
#322=AXIS2_PLACEMENT_3D('',#429,#430,#431);
#323=PRE_DEFINED_MARKER('');
#324=COLOUR_RGB('',0.509803950786591,0.509803950786591,0.588235318660736);
#325=DRAUGHTING_PRE_DEFINED_CURVE_FONT('continuous');
#326=COLOUR_RGB('',0.509803950786591,0.509803950786591,0.588235318660736);
#327=CARTESIAN_POINT('',(11.6000000000001,1.57748718070688E-014,2.87416697508021));
#328=VECTOR('',#432,1.0);
#329=PRE_DEFINED_MARKER('');
#330=COLOUR_RGB('',0.509803950786591,0.509803950786591,0.588235318660736);
#332=CARTESIAN_POINT('',(5.6843418860808E-014,1.24443754506181E-014,-2.8421709430404E-014));
#333=DIRECTION('',(-0.0,0.0,-1.0));
#334=DIRECTION('',(-1.0,-1.64651119484201E-016,0.0));
#335=CARTESIAN_POINT('',(5.6843418860808E-014,1.24443754506181E-014,-2.8421709430404E-014));
#336=DIRECTION('',(-0.0,0.0,-1.0));
#337=DIRECTION('',(-1.0,-1.64651119484201E-016,0.0));
#338=CARTESIAN_POINT('',(5.6843418860808E-014,1.24443754506181E-014,7.99999999999997));
#339=DIRECTION('',(-0.0,0.0,-1.0));
#340=DIRECTION('',(-1.0,-1.64651119484201E-016,0.0));
#341=SURFACE_STYLE_FILL_AREA(#433);
#342=SURFACE_STYLE_FILL_AREA(#434);
#343=ORIENTED_EDGE('',*,*,#117,.T.);
#344=ORIENTED_EDGE('',*,*,#63,.F.);
#345=ORIENTED_EDGE('',*,*,#103,.T.);
#346=ORIENTED_EDGE('',*,*,#67,.T.);
#347=CARTESIAN_POINT('',(5.6843418860808E-014,1.24443754506181E-014,3.99999999999997));
#348=DIRECTION('',(0.0,-0.0,1.0));
#349=DIRECTION('',(-1.0,-1.64651119484201E-016,0.0));
#350=CARTESIAN_POINT('',(5.6843418860808E-014,1.24443754506181E-014,7.99999999999997));
#351=DIRECTION('',(-0.0,0.0,-1.0));
#352=DIRECTION('',(-1.0,-1.64651119484201E-016,0.0));
#353=CARTESIAN_POINT('',(5.6843418860808E-014,1.24443754506181E-014,-2.8421709430404E-014));
#354=DIRECTION('',(-0.0,0.0,-1.0));
#355=DIRECTION('',(-1.0,-1.64651119484201E-016,0.0));
#356=CARTESIAN_POINT('',(5.6843418860808E-014,1.24443754506181E-014,5.74833395016046));
#357=DIRECTION('',(-0.0,0.0,-1.0));
#358=DIRECTION('',(-1.0,-1.64651119484201E-016,0.0));
#359=CARTESIAN_POINT('',(5.6843418860808E-014,1.24443754506181E-014,5.74833395016046));
#360=DIRECTION('',(-0.0,0.0,-1.0));
#361=DIRECTION('',(-1.0,-1.64651119484201E-016,0.0));
#362=DIRECTION('',(0.866025403784437,2.48646073439466E-016,0.500000000000003));
#363=SURFACE_STYLE_FILL_AREA(#435);
#364=ORIENTED_EDGE('',*,*,#115,.T.);
#365=ORIENTED_EDGE('',*,*,#77,.T.);
#366=ORIENTED_EDGE('',*,*,#81,.T.);
#367=ORIENTED_EDGE('',*,*,#73,.F.);
#368=CARTESIAN_POINT('',(5.6843418860808E-014,1.24443754506181E-014,6.87416697508021));
#369=DIRECTION('',(0.0,-0.0,1.0));
#370=DIRECTION('',(-1.0,-1.64651119484201E-016,0.0));
#371=SURFACE_STYLE_FILL_AREA(#436);
#372=ORIENTED_EDGE('',*,*,#117,.F.);
#373=ORIENTED_EDGE('',*,*,#93,.T.);
#374=ORIENTED_EDGE('',*,*,#103,.F.);
#375=ORIENTED_EDGE('',*,*,#113,.F.);
#376=CARTESIAN_POINT('',(5.6843418860808E-014,1.24443754506181E-014,3.99999999999997));
#377=DIRECTION('',(0.0,-0.0,1.0));
#378=DIRECTION('',(-1.0,-1.64651119484201E-016,0.0));
#379=SURFACE_STYLE_FILL_AREA(#437);
#380=ORIENTED_EDGE('',*,*,#59,.F.);
#381=ORIENTED_EDGE('',*,*,#75,.F.);
#382=ORIENTED_EDGE('',*,*,#113,.T.);
#383=ORIENTED_EDGE('',*,*,#63,.T.);
#384=CARTESIAN_POINT('',(-18.3,9.71350328159423E-015,-2.8421709430404E-014));
#385=DIRECTION('',(0.0,0.0,-1.0));
#386=DIRECTION('',(1.0,1.22460635382238E-016,0.0));
#387=DIRECTION('',(0.0,0.0,-1.0));
#388=CARTESIAN_POINT('',(5.6843418860808E-014,1.24443754506181E-014,7.99999999999997));
#389=DIRECTION('',(-0.0,0.0,-1.0));
#390=DIRECTION('',(-1.0,-1.64651119484201E-016,0.0));
#391=CARTESIAN_POINT('',(5.6843418860808E-014,1.24443754506181E-014,7.99999999999997));
#392=DIRECTION('',(-0.0,0.0,-1.0));
#393=DIRECTION('',(-1.0,-1.64651119484201E-016,0.0));
#394=SURFACE_STYLE_FILL_AREA(#438);
#395=ORIENTED_EDGE('',*,*,#115,.F.);
#396=ORIENTED_EDGE('',*,*,#95,.F.);
#397=ORIENTED_EDGE('',*,*,#81,.F.);
#398=ORIENTED_EDGE('',*,*,#79,.T.);
#399=CARTESIAN_POINT('',(5.6843418860808E-014,1.24443754506181E-014,6.87416697508021));
#400=DIRECTION('',(0.0,-0.0,1.0));
#401=DIRECTION('',(-1.0,-1.64651119484201E-016,0.0));
#402=SURFACE_STYLE_FILL_AREA(#439);
#403=ORIENTED_EDGE('',*,*,#91,.T.);
#404=ORIENTED_EDGE('',*,*,#59,.T.);
#405=ORIENTED_EDGE('',*,*,#125,.T.);
#406=ORIENTED_EDGE('',*,*,#77,.F.);
#407=CARTESIAN_POINT('',(5.6843418860808E-014,1.24443754506181E-014,2.87416697508021));
#408=DIRECTION('',(0.0,-0.0,1.0));
#409=DIRECTION('',(-1.0,-1.64651119484201E-016,0.0));
#410=DIRECTION('',(-0.0,-0.0,1.0));
#411=SURFACE_STYLE_FILL_AREA(#440);
#412=ORIENTED_EDGE('',*,*,#93,.F.);
#413=ORIENTED_EDGE('',*,*,#67,.F.);
#414=ORIENTED_EDGE('',*,*,#73,.T.);
#415=ORIENTED_EDGE('',*,*,#95,.T.);
#416=CARTESIAN_POINT('',(-20.2499999999999,9.96454758412782E-015,7.99999999999997));
#417=DIRECTION('',(0.0,0.0,1.0));
#418=DIRECTION('',(-1.0,-1.22460635382238E-016,0.0));
#419=CARTESIAN_POINT('',(5.6843418860808E-014,1.24443754506181E-014,-2.8421709430404E-014));
#420=DIRECTION('',(-0.0,0.0,-1.0));
#421=DIRECTION('',(-1.0,-1.64651119484201E-016,0.0));
#422=DIRECTION('',(0.866025403784437,2.48646073439466E-016,-0.500000000000003));
#423=DIRECTION('',(0.0,0.0,-1.0));
#424=SURFACE_STYLE_FILL_AREA(#441);
#425=ORIENTED_EDGE('',*,*,#91,.F.);
#426=ORIENTED_EDGE('',*,*,#79,.F.);
#427=ORIENTED_EDGE('',*,*,#125,.F.);
#428=ORIENTED_EDGE('',*,*,#75,.T.);
#429=CARTESIAN_POINT('',(5.6843418860808E-014,1.24443754506181E-014,2.87416697508021));
#430=DIRECTION('',(0.0,-0.0,1.0));
#431=DIRECTION('',(-1.0,-1.64651119484201E-016,0.0));
#432=DIRECTION('',(0.0,0.0,1.0));
#433=FILL_AREA_STYLE('',(#442));
#434=FILL_AREA_STYLE('',(#443));
#435=FILL_AREA_STYLE('',(#444));
#436=FILL_AREA_STYLE('',(#445));
#437=FILL_AREA_STYLE('',(#446));
#438=FILL_AREA_STYLE('',(#447));
#439=FILL_AREA_STYLE('',(#448));
#440=FILL_AREA_STYLE('',(#449));
#441=FILL_AREA_STYLE('',(#450));
#442=FILL_AREA_STYLE_COLOUR('',#451);
#443=FILL_AREA_STYLE_COLOUR('',#452);
#444=FILL_AREA_STYLE_COLOUR('',#453);
#445=FILL_AREA_STYLE_COLOUR('',#454);
#446=FILL_AREA_STYLE_COLOUR('',#455);
#447=FILL_AREA_STYLE_COLOUR('',#456);
#448=FILL_AREA_STYLE_COLOUR('',#457);
#449=FILL_AREA_STYLE_COLOUR('',#458);
#450=FILL_AREA_STYLE_COLOUR('',#459);
#451=COLOUR_RGB('',0.509803950786591,0.509803950786591,0.588235318660736);
#452=COLOUR_RGB('',0.509803950786591,0.509803950786591,0.588235318660736);
#453=COLOUR_RGB('',0.509803950786591,0.509803950786591,0.588235318660736);
#454=COLOUR_RGB('',0.509803950786591,0.509803950786591,0.588235318660736);
#455=COLOUR_RGB('',0.509803950786591,0.509803950786591,0.588235318660736);
#456=COLOUR_RGB('',0.509803950786591,0.509803950786591,0.588235318660736);
#457=COLOUR_RGB('',0.509803950786591,0.509803950786591,0.588235318660736);
#458=COLOUR_RGB('',0.509803950786591,0.509803950786591,0.588235318660736);
#459=COLOUR_RGB('',0.509803950786591,0.509803950786591,0.588235318660736);
ENDSEC;
END-ISO-10303-21;
