ISO-10303-21;
HEADER;
FILE_DESCRIPTION(('STEP AP214'),'1');
FILE_NAME(' ','  ',('TraceParts'),('TraceParts S.A.'),'XStep 1.0',' ',' ');
FILE_SCHEMA(('automotive_design'));
ENDSEC;
DATA;
#1=MECHANICAL_DESIGN_GEOMETRIC_PRESENTATION_REPRESENTATION(' ',(#10,#11,#12,#13,#14,#15,#16,#17,#18,#19,#20,#21,#22,#23,#24,#25,#26,#27,#28,#29,#30,#31,#32,#33,#34,#35,#36,#37,#38,#39,#40,#41,#42,#43,#44),#6);
#2=PRODUCT_DEFINITION_CONTEXT('',#45,'design');
#3=APPLICATION_PROTOCOL_DEFINITION('INTERNATIONAL STANDARD','automotive_design',1994,#45);
#4=PRODUCT_CATEGORY_RELATIONSHIP('NONE','NONE',#46,#47);
#5=SHAPE_DEFINITION_REPRESENTATION(#48,#49);
#6= (GEOMETRIC_REPRESENTATION_CONTEXT(3)GLOBAL_UNCERTAINTY_ASSIGNED_CONTEXT((#52))GLOBAL_UNIT_ASSIGNED_CONTEXT((#54,#55,#56))REPRESENTATION_CONTEXT('NONE','WORKSPACE'));
#10=STYLED_ITEM('',(#58),#59);
#11=STYLED_ITEM('',(#60),#61);
#12=STYLED_ITEM('',(#62),#63);
#13=STYLED_ITEM('',(#64),#65);
#14=STYLED_ITEM('',(#66),#67);
#15=STYLED_ITEM('',(#68),#69);
#16=STYLED_ITEM('',(#70),#71);
#17=STYLED_ITEM('',(#72),#73);
#18=STYLED_ITEM('',(#74),#75);
#19=STYLED_ITEM('',(#76),#77);
#20=STYLED_ITEM('',(#78),#79);
#21=STYLED_ITEM('',(#80),#81);
#22=STYLED_ITEM('',(#82),#83);
#23=STYLED_ITEM('',(#84),#85);
#24=STYLED_ITEM('',(#86),#87);
#25=STYLED_ITEM('',(#88),#89);
#26=STYLED_ITEM('',(#90),#91);
#27=STYLED_ITEM('',(#92),#93);
#28=STYLED_ITEM('',(#94),#95);
#29=STYLED_ITEM('',(#96),#97);
#30=STYLED_ITEM('',(#98),#99);
#31=STYLED_ITEM('',(#100),#101);
#32=STYLED_ITEM('',(#102),#103);
#33=STYLED_ITEM('',(#104),#105);
#34=STYLED_ITEM('',(#106),#107);
#35=STYLED_ITEM('',(#108),#109);
#36=STYLED_ITEM('',(#110),#111);
#37=STYLED_ITEM('',(#112),#113);
#38=STYLED_ITEM('',(#114),#115);
#39=STYLED_ITEM('',(#116),#117);
#40=STYLED_ITEM('',(#118),#119);
#41=STYLED_ITEM('',(#120),#121);
#42=STYLED_ITEM('',(#122),#123);
#43=STYLED_ITEM('',(#124),#125);
#44=STYLED_ITEM('',(#126),#127);
#45=APPLICATION_CONTEXT(' ');
#46=PRODUCT_CATEGORY('part','NONE');
#47=PRODUCT_RELATED_PRODUCT_CATEGORY('detail',' ',(#128));
#48=PRODUCT_DEFINITION_SHAPE('NONE','NONE',#129);
#49=ADVANCED_BREP_SHAPE_REPRESENTATION('1',(#83,#130),#6);
#52=UNCERTAINTY_MEASURE_WITH_UNIT(LENGTH_MEASURE(1.0E-006),#54,'','');
#54= (CONVERSION_BASED_UNIT('MILLIMETRE',#133)LENGTH_UNIT()NAMED_UNIT(#136));
#55= (NAMED_UNIT(#138)PLANE_ANGLE_UNIT()SI_UNIT($,.RADIAN.));
#56= (NAMED_UNIT(#138)SOLID_ANGLE_UNIT()SI_UNIT($,.STERADIAN.));
#58=PRESENTATION_STYLE_ASSIGNMENT((#144));
#59=EDGE_CURVE('',#71,#99,#145,.T.);
#60=PRESENTATION_STYLE_ASSIGNMENT((#146));
#61=EDGE_CURVE('',#85,#113,#147,.T.);
#62=PRESENTATION_STYLE_ASSIGNMENT((#148));
#63=ADVANCED_FACE('',(#149),#150,.F.);
#64=PRESENTATION_STYLE_ASSIGNMENT((#151));
#65=ADVANCED_FACE('',(#152,#153),#154,.T.);
#66=PRESENTATION_STYLE_ASSIGNMENT((#155));
#67=EDGE_CURVE('',#69,#123,#156,.T.);
#68=PRESENTATION_STYLE_ASSIGNMENT((#157));
#69=VERTEX_POINT('',#158);
#70=PRESENTATION_STYLE_ASSIGNMENT((#159));
#71=VERTEX_POINT('',#160);
#72=PRESENTATION_STYLE_ASSIGNMENT((#161));
#73=EDGE_CURVE('',#127,#115,#162,.T.);
#74=PRESENTATION_STYLE_ASSIGNMENT((#163));
#75=EDGE_CURVE('',#119,#99,#164,.T.);
#76=PRESENTATION_STYLE_ASSIGNMENT((#165));
#77=EDGE_CURVE('',#113,#85,#166,.T.);
#78=PRESENTATION_STYLE_ASSIGNMENT((#167));
#79=ADVANCED_FACE('',(#168),#169,.F.);
#80=PRESENTATION_STYLE_ASSIGNMENT((#170));
#81=EDGE_CURVE('',#123,#113,#171,.T.);
#82=PRESENTATION_STYLE_ASSIGNMENT((#172));
#83=MANIFOLD_SOLID_BREP('1',#173);
#84=PRESENTATION_STYLE_ASSIGNMENT((#174));
#85=VERTEX_POINT('',#175);
#86=PRESENTATION_STYLE_ASSIGNMENT((#176));
#87=ADVANCED_FACE('',(#177),#178,.F.);
#88=PRESENTATION_STYLE_ASSIGNMENT((#179));
#89=EDGE_CURVE('',#71,#101,#180,.T.);
#90=PRESENTATION_STYLE_ASSIGNMENT((#181));
#91=ADVANCED_FACE('',(#182),#183,.T.);
#92=PRESENTATION_STYLE_ASSIGNMENT((#184));
#93=ADVANCED_FACE('',(#185,#186),#187,.T.);
#94=PRESENTATION_STYLE_ASSIGNMENT((#188));
#95=ADVANCED_FACE('',(#189),#190,.F.);
#96=PRESENTATION_STYLE_ASSIGNMENT((#191));
#97=EDGE_CURVE('',#119,#101,#192,.T.);
#98=PRESENTATION_STYLE_ASSIGNMENT((#193));
#99=VERTEX_POINT('',#194);
#100=PRESENTATION_STYLE_ASSIGNMENT((#195));
#101=VERTEX_POINT('',#196);
#102=PRESENTATION_STYLE_ASSIGNMENT((#197));
#103=EDGE_CURVE('',#85,#69,#198,.T.);
#104=PRESENTATION_STYLE_ASSIGNMENT((#199));
#105=EDGE_CURVE('',#101,#115,#200,.T.);
#106=PRESENTATION_STYLE_ASSIGNMENT((#201));
#107=ADVANCED_FACE('',(#202),#203,.T.);
#108=PRESENTATION_STYLE_ASSIGNMENT((#204));
#109=EDGE_CURVE('',#123,#69,#205,.T.);
#110=PRESENTATION_STYLE_ASSIGNMENT((#206));
#111=EDGE_CURVE('',#115,#127,#207,.T.);
#112=PRESENTATION_STYLE_ASSIGNMENT((#208));
#113=VERTEX_POINT('',#209);
#114=PRESENTATION_STYLE_ASSIGNMENT((#210));
#115=VERTEX_POINT('',#211);
#116=PRESENTATION_STYLE_ASSIGNMENT((#212));
#117=EDGE_CURVE('',#127,#119,#213,.T.);
#118=PRESENTATION_STYLE_ASSIGNMENT((#214));
#119=VERTEX_POINT('',#215);
#120=PRESENTATION_STYLE_ASSIGNMENT((#216));
#121=EDGE_CURVE('',#101,#119,#217,.T.);
#122=PRESENTATION_STYLE_ASSIGNMENT((#218));
#123=VERTEX_POINT('',#219);
#124=PRESENTATION_STYLE_ASSIGNMENT((#220));
#125=EDGE_CURVE('',#99,#71,#221,.T.);
#126=PRESENTATION_STYLE_ASSIGNMENT((#222));
#127=VERTEX_POINT('',#223);
#128=PRODUCT('1','1','PART-1-DESC',(#224));
#129=PRODUCT_DEFINITION('NONE','NONE',#225,#2);
#130=AXIS2_PLACEMENT_3D('',#226,#227,#228);
#133=LENGTH_MEASURE_WITH_UNIT(LENGTH_MEASURE(1.0),#229);
#136=DIMENSIONAL_EXPONENTS(1.0,0.0,0.0,0.0,0.0,0.0,0.0);
#138=DIMENSIONAL_EXPONENTS(0.0,0.0,0.0,0.0,0.0,0.0,0.0);
#144=CURVE_STYLE('',#230,POSITIVE_LENGTH_MEASURE(1.0E-006),#231);
#145=CIRCLE('',#232,21.0);
#146=CURVE_STYLE('',#233,POSITIVE_LENGTH_MEASURE(1.0E-006),#234);
#147=CIRCLE('',#235,34.0);
#148=SURFACE_STYLE_USAGE(.BOTH.,#236);
#149=FACE_OUTER_BOUND('',#237,.T.);
#150=CONICAL_SURFACE('',#238,25.5,1.04719755119659);
#151=SURFACE_STYLE_USAGE(.BOTH.,#239);
#152=FACE_OUTER_BOUND('',#240,.T.);
#153=FACE_BOUND('',#241,.T.);
#154=PLANE('',#242);
#155=CURVE_STYLE('',#243,POSITIVE_LENGTH_MEASURE(1.0E-006),#244);
#156=CIRCLE('',#245,34.0);
#157=POINT_STYLE(' ',#246,POSITIVE_LENGTH_MEASURE(1.0E-006),#247);
#158=CARTESIAN_POINT('',(34.0,2.26450976909491E-014,15.0));
#159=POINT_STYLE(' ',#248,POSITIVE_LENGTH_MEASURE(1.0E-006),#249);
#160=CARTESIAN_POINT('',(21.0,1.8893011015322E-014,-2.8421709430404E-014));
#161=CURVE_STYLE('',#250,POSITIVE_LENGTH_MEASURE(1.0E-006),#251);
#162=CIRCLE('',#252,30.0);
#163=CURVE_STYLE('',#253,POSITIVE_LENGTH_MEASURE(1.0E-006),#254);
#164=LINE('',#255,#256);
#165=CURVE_STYLE('',#257,POSITIVE_LENGTH_MEASURE(1.0E-006),#258);
#166=CIRCLE('',#259,34.0);
#167=SURFACE_STYLE_USAGE(.BOTH.,#260);
#168=FACE_OUTER_BOUND('',#261,.T.);
#169=CYLINDRICAL_SURFACE('',#262,21.0);
#170=CURVE_STYLE('',#263,POSITIVE_LENGTH_MEASURE(1.0E-006),#264);
#171=LINE('',#265,#266);
#172=SURFACE_STYLE_USAGE(.BOTH.,#267);
#173=CLOSED_SHELL('',(#79,#91,#95,#63,#65,#107,#93,#87));
#174=POINT_STYLE(' ',#268,POSITIVE_LENGTH_MEASURE(1.0E-006),#269);
#175=CARTESIAN_POINT('',(34.0,2.26450976909491E-014,-2.8421709430404E-014));
#176=SURFACE_STYLE_USAGE(.BOTH.,#270);
#177=FACE_OUTER_BOUND('',#271,.T.);
#178=CYLINDRICAL_SURFACE('',#272,21.0);
#179=CURVE_STYLE('',#273,POSITIVE_LENGTH_MEASURE(1.0E-006),#274);
#180=LINE('',#275,#276);
#181=SURFACE_STYLE_USAGE(.BOTH.,#277);
#182=FACE_OUTER_BOUND('',#278,.T.);
#183=CYLINDRICAL_SURFACE('',#279,34.0);
#184=SURFACE_STYLE_USAGE(.BOTH.,#280);
#185=FACE_BOUND('',#281,.T.);
#186=FACE_OUTER_BOUND('',#282,.T.);
#187=PLANE('',#283);
#188=SURFACE_STYLE_USAGE(.BOTH.,#284);
#189=FACE_OUTER_BOUND('',#285,.T.);
#190=CONICAL_SURFACE('',#286,25.5,1.04719755119659);
#191=CURVE_STYLE('',#287,POSITIVE_LENGTH_MEASURE(1.0E-006),#288);
#192=CIRCLE('',#289,21.0);
#193=POINT_STYLE(' ',#290,POSITIVE_LENGTH_MEASURE(1.0E-006),#291);
#194=CARTESIAN_POINT('',(-21.0,9.34181981553063E-015,-2.8421709430404E-014));
#195=POINT_STYLE(' ',#292,POSITIVE_LENGTH_MEASURE(1.0E-006),#293);
#196=CARTESIAN_POINT('',(21.0,1.8893011015322E-014,9.80384757729325));
#197=CURVE_STYLE('',#294,POSITIVE_LENGTH_MEASURE(1.0E-006),#295);
#198=LINE('',#296,#297);
#199=CURVE_STYLE('',#298,POSITIVE_LENGTH_MEASURE(1.0E-006),#299);
#200=LINE('',#300,#301);
#201=SURFACE_STYLE_USAGE(.BOTH.,#302);
#202=FACE_OUTER_BOUND('',#303,.T.);
#203=CYLINDRICAL_SURFACE('',#304,34.0);
#204=CURVE_STYLE('',#305,POSITIVE_LENGTH_MEASURE(1.0E-006),#306);
#205=CIRCLE('',#307,34.0);
#206=CURVE_STYLE('',#308,POSITIVE_LENGTH_MEASURE(1.0E-006),#309);
#207=CIRCLE('',#310,30.0);
#208=POINT_STYLE(' ',#311,POSITIVE_LENGTH_MEASURE(1.0E-006),#312);
#209=CARTESIAN_POINT('',(-34.0,7.74983155556154E-015,-2.8421709430404E-014));
#210=POINT_STYLE(' ',#313,POSITIVE_LENGTH_MEASURE(1.0E-006),#314);
#211=CARTESIAN_POINT('',(30.0,2.14906094830638E-014,15.0));
#212=CURVE_STYLE('',#315,POSITIVE_LENGTH_MEASURE(1.0E-006),#316);
#213=LINE('',#317,#318);
#214=POINT_STYLE(' ',#319,POSITIVE_LENGTH_MEASURE(1.0E-006),#320);
#215=CARTESIAN_POINT('',(-21.0,9.94211251728361E-015,9.80384757729325));
#216=CURVE_STYLE('',#321,POSITIVE_LENGTH_MEASURE(1.0E-006),#322);
#217=CIRCLE('',#323,21.0);
#218=POINT_STYLE(' ',#324,POSITIVE_LENGTH_MEASURE(1.0E-006),#325);
#219=CARTESIAN_POINT('',(-34.0,8.66828632092833E-015,15.0));
#220=CURVE_STYLE('',#326,POSITIVE_LENGTH_MEASURE(1.0E-006),#327);
#221=CIRCLE('',#328,21.0);
#222=POINT_STYLE(' ',#329,POSITIVE_LENGTH_MEASURE(1.0E-006),#330);
#223=CARTESIAN_POINT('',(-30.0,9.15812886245728E-015,15.0));
#224=PRODUCT_CONTEXT('',#45,'mechanical');
#225=PRODUCT_DEFINITION_FORMATION_WITH_SPECIFIED_SOURCE(' ','NONE',#128,.NOT_KNOWN.);
#226=CARTESIAN_POINT('',(0.0,0.0,0.0));
#227=DIRECTION('',(0.0,0.0,1.0));
#228=DIRECTION('',(1.0,0.0,0.0));
#229= (NAMED_UNIT(#136)LENGTH_UNIT()SI_UNIT(.MILLI.,.METRE.));
#230=DRAUGHTING_PRE_DEFINED_CURVE_FONT('continuous');
#231=COLOUR_RGB('',0.509803950786591,0.509803950786591,0.588235318660736);
#232=AXIS2_PLACEMENT_3D('',#332,#333,#334);
#233=DRAUGHTING_PRE_DEFINED_CURVE_FONT('continuous');
#234=COLOUR_RGB('',0.509803950786591,0.509803950786591,0.588235318660736);
#235=AXIS2_PLACEMENT_3D('',#335,#336,#337);
#236=SURFACE_SIDE_STYLE('',(#338));
#237=EDGE_LOOP('',(#339,#340,#341,#342));
#238=AXIS2_PLACEMENT_3D('',#343,#344,#345);
#239=SURFACE_SIDE_STYLE('',(#346));
#240=EDGE_LOOP('',(#347,#348));
#241=EDGE_LOOP('',(#349,#350));
#242=AXIS2_PLACEMENT_3D('',#351,#352,#353);
#243=DRAUGHTING_PRE_DEFINED_CURVE_FONT('continuous');
#244=COLOUR_RGB('',0.509803950786591,0.509803950786591,0.588235318660736);
#245=AXIS2_PLACEMENT_3D('',#354,#355,#356);
#246=PRE_DEFINED_MARKER('');
#247=COLOUR_RGB('',0.509803950786591,0.509803950786591,0.588235318660736);
#248=PRE_DEFINED_MARKER('');
#249=COLOUR_RGB('',0.509803950786591,0.509803950786591,0.588235318660736);
#250=DRAUGHTING_PRE_DEFINED_CURVE_FONT('continuous');
#251=COLOUR_RGB('',0.509803950786591,0.509803950786591,0.588235318660736);
#252=AXIS2_PLACEMENT_3D('',#357,#358,#359);
#253=DRAUGHTING_PRE_DEFINED_CURVE_FONT('continuous');
#254=COLOUR_RGB('',0.509803950786591,0.509803950786591,0.588235318660736);
#255=CARTESIAN_POINT('',(-21.0,6.7708848325268E-015,4.90192378864661));
#256=VECTOR('',#360,1.0);
#257=DRAUGHTING_PRE_DEFINED_CURVE_FONT('continuous');
#258=COLOUR_RGB('',0.509803950786591,0.509803950786591,0.588235318660736);
#259=AXIS2_PLACEMENT_3D('',#361,#362,#363);
#260=SURFACE_SIDE_STYLE('',(#364));
#261=EDGE_LOOP('',(#365,#366,#367,#368));
#262=AXIS2_PLACEMENT_3D('',#369,#370,#371);
#263=DRAUGHTING_PRE_DEFINED_CURVE_FONT('continuous');
#264=COLOUR_RGB('',0.509803950786591,0.509803950786591,0.588235318660736);
#265=CARTESIAN_POINT('',(-34.0,3.01879815689971E-015,7.49999999999997));
#266=VECTOR('',#372,1.0);
#267=SURFACE_SIDE_STYLE('',(#373));
#268=PRE_DEFINED_MARKER('');
#269=COLOUR_RGB('',0.509803950786591,0.509803950786591,0.588235318660736);
#270=SURFACE_SIDE_STYLE('',(#374));
#271=EDGE_LOOP('',(#375,#376,#377,#378));
#272=AXIS2_PLACEMENT_3D('',#379,#380,#381);
#273=DRAUGHTING_PRE_DEFINED_CURVE_FONT('continuous');
#274=COLOUR_RGB('',0.509803950786591,0.509803950786591,0.588235318660736);
#275=CARTESIAN_POINT('',(21.0,1.8893011015322E-014,4.90192378864661));
#276=VECTOR('',#382,1.0);
#277=SURFACE_SIDE_STYLE('',(#383));
#278=EDGE_LOOP('',(#384,#385,#386,#387));
#279=AXIS2_PLACEMENT_3D('',#388,#389,#390);
#280=SURFACE_SIDE_STYLE('',(#391));
#281=EDGE_LOOP('',(#392,#393));
#282=EDGE_LOOP('',(#394,#395));
#283=AXIS2_PLACEMENT_3D('',#396,#397,#398);
#284=SURFACE_SIDE_STYLE('',(#399));
#285=EDGE_LOOP('',(#400,#401,#402,#403));
#286=AXIS2_PLACEMENT_3D('',#404,#405,#406);
#287=DRAUGHTING_PRE_DEFINED_CURVE_FONT('continuous');
#288=COLOUR_RGB('',0.509803950786591,0.509803950786591,0.588235318660736);
#289=AXIS2_PLACEMENT_3D('',#407,#408,#409);
#290=PRE_DEFINED_MARKER('');
#291=COLOUR_RGB('',0.509803950786591,0.509803950786591,0.588235318660736);
#292=PRE_DEFINED_MARKER('');
#293=COLOUR_RGB('',0.509803950786591,0.509803950786591,0.588235318660736);
#294=DRAUGHTING_PRE_DEFINED_CURVE_FONT('continuous');
#295=COLOUR_RGB('',0.509803950786591,0.509803950786591,0.588235318660736);
#296=CARTESIAN_POINT('',(34.0,2.26450976909491E-014,7.49999999999997));
#297=VECTOR('',#410,1.0);
#298=DRAUGHTING_PRE_DEFINED_CURVE_FONT('continuous');
#299=COLOUR_RGB('',0.509803950786591,0.509803950786591,0.588235318660736);
#300=CARTESIAN_POINT('',(25.5,2.01918102491929E-014,12.4019237886466));
#301=VECTOR('',#411,1.0);
#302=SURFACE_SIDE_STYLE('',(#412));
#303=EDGE_LOOP('',(#413,#414,#415,#416));
#304=AXIS2_PLACEMENT_3D('',#417,#418,#419);
#305=DRAUGHTING_PRE_DEFINED_CURVE_FONT('continuous');
#306=COLOUR_RGB('',0.509803950786591,0.509803950786591,0.588235318660736);
#307=AXIS2_PLACEMENT_3D('',#420,#421,#422);
#308=DRAUGHTING_PRE_DEFINED_CURVE_FONT('continuous');
#309=COLOUR_RGB('',0.509803950786591,0.509803950786591,0.588235318660736);
#310=AXIS2_PLACEMENT_3D('',#423,#424,#425);
#311=PRE_DEFINED_MARKER('');
#312=COLOUR_RGB('',0.509803950786591,0.509803950786591,0.588235318660736);
#313=PRE_DEFINED_MARKER('');
#314=COLOUR_RGB('',0.509803950786591,0.509803950786591,0.588235318660736);
#315=DRAUGHTING_PRE_DEFINED_CURVE_FONT('continuous');
#316=COLOUR_RGB('',0.509803950786591,0.509803950786591,0.588235318660736);
#317=CARTESIAN_POINT('',(-25.5,5.47208559865588E-015,12.4019237886466));
#318=VECTOR('',#426,1.0);
#319=PRE_DEFINED_MARKER('');
#320=COLOUR_RGB('',0.509803950786591,0.509803950786591,0.588235318660736);
#321=DRAUGHTING_PRE_DEFINED_CURVE_FONT('continuous');
#322=COLOUR_RGB('',0.509803950786591,0.509803950786591,0.588235318660736);
#323=AXIS2_PLACEMENT_3D('',#427,#428,#429);
#324=PRE_DEFINED_MARKER('');
#325=COLOUR_RGB('',0.509803950786591,0.509803950786591,0.588235318660736);
#326=DRAUGHTING_PRE_DEFINED_CURVE_FONT('continuous');
#327=COLOUR_RGB('',0.509803950786591,0.509803950786591,0.588235318660736);
#328=AXIS2_PLACEMENT_3D('',#430,#431,#432);
#329=PRE_DEFINED_MARKER('');
#330=COLOUR_RGB('',0.509803950786591,0.509803950786591,0.588235318660736);
#332=CARTESIAN_POINT('',(0.0,1.28319479239244E-014,-2.8421709430404E-014));
#333=DIRECTION('',(-0.0,0.0,-1.0));
#334=DIRECTION('',(-1.0,-1.66161416589077E-016,0.0));
#335=CARTESIAN_POINT('',(0.0,1.28319479239244E-014,-2.8421709430404E-014));
#336=DIRECTION('',(-0.0,0.0,-1.0));
#337=DIRECTION('',(-1.0,-1.66161416589077E-016,0.0));
#338=SURFACE_STYLE_FILL_AREA(#433);
#339=ORIENTED_EDGE('',*,*,#117,.T.);
#340=ORIENTED_EDGE('',*,*,#97,.T.);
#341=ORIENTED_EDGE('',*,*,#105,.T.);
#342=ORIENTED_EDGE('',*,*,#73,.F.);
#343=CARTESIAN_POINT('',(0.0,1.28319479239244E-014,12.4019237886466));
#344=DIRECTION('',(0.0,-0.0,1.0));
#345=DIRECTION('',(-1.0,-1.66161416589077E-016,0.0));
#346=SURFACE_STYLE_FILL_AREA(#434);
#347=ORIENTED_EDGE('',*,*,#109,.F.);
#348=ORIENTED_EDGE('',*,*,#67,.F.);
#349=ORIENTED_EDGE('',*,*,#73,.T.);
#350=ORIENTED_EDGE('',*,*,#111,.T.);
#351=CARTESIAN_POINT('',(-32.0,8.9132075916928E-015,15.0));
#352=DIRECTION('',(0.0,0.0,1.0));
#353=DIRECTION('',(-1.0,-1.22460635382238E-016,0.0));
#354=CARTESIAN_POINT('',(0.0,1.28319479239244E-014,15.0));
#355=DIRECTION('',(-0.0,0.0,-1.0));
#356=DIRECTION('',(-1.0,-1.66161416589077E-016,0.0));
#357=CARTESIAN_POINT('',(0.0,1.28319479239244E-014,15.0));
#358=DIRECTION('',(-0.0,0.0,-1.0));
#359=DIRECTION('',(-1.0,-1.66161416589077E-016,0.0));
#360=DIRECTION('',(0.0,0.0,-1.0));
#361=CARTESIAN_POINT('',(0.0,1.28319479239244E-014,-2.8421709430404E-014));
#362=DIRECTION('',(-0.0,0.0,-1.0));
#363=DIRECTION('',(-1.0,-1.66161416589077E-016,0.0));
#364=SURFACE_STYLE_FILL_AREA(#435);
#365=ORIENTED_EDGE('',*,*,#75,.F.);
#366=ORIENTED_EDGE('',*,*,#121,.F.);
#367=ORIENTED_EDGE('',*,*,#89,.F.);
#368=ORIENTED_EDGE('',*,*,#59,.T.);
#369=CARTESIAN_POINT('',(0.0,1.28319479239244E-014,4.90192378864661));
#370=DIRECTION('',(0.0,-0.0,1.0));
#371=DIRECTION('',(-1.0,-1.66161416589077E-016,0.0));
#372=DIRECTION('',(0.0,0.0,-1.0));
#373=SURFACE_STYLE_FILL_AREA(#436);
#374=SURFACE_STYLE_FILL_AREA(#437);
#375=ORIENTED_EDGE('',*,*,#75,.T.);
#376=ORIENTED_EDGE('',*,*,#125,.T.);
#377=ORIENTED_EDGE('',*,*,#89,.T.);
#378=ORIENTED_EDGE('',*,*,#97,.F.);
#379=CARTESIAN_POINT('',(0.0,1.28319479239244E-014,4.90192378864661));
#380=DIRECTION('',(0.0,-0.0,1.0));
#381=DIRECTION('',(-1.0,-1.66161416589077E-016,0.0));
#382=DIRECTION('',(0.0,0.0,1.0));
#383=SURFACE_STYLE_FILL_AREA(#438);
#384=ORIENTED_EDGE('',*,*,#81,.F.);
#385=ORIENTED_EDGE('',*,*,#109,.T.);
#386=ORIENTED_EDGE('',*,*,#103,.F.);
#387=ORIENTED_EDGE('',*,*,#77,.F.);
#388=CARTESIAN_POINT('',(0.0,1.28319479239244E-014,7.49999999999997));
#389=DIRECTION('',(0.0,-0.0,1.0));
#390=DIRECTION('',(-1.0,-1.66161416589077E-016,0.0));
#391=SURFACE_STYLE_FILL_AREA(#439);
#392=ORIENTED_EDGE('',*,*,#125,.F.);
#393=ORIENTED_EDGE('',*,*,#59,.F.);
#394=ORIENTED_EDGE('',*,*,#77,.T.);
#395=ORIENTED_EDGE('',*,*,#61,.T.);
#396=CARTESIAN_POINT('',(-27.5,8.54582568554609E-015,-2.8421709430404E-014));
#397=DIRECTION('',(0.0,0.0,-1.0));
#398=DIRECTION('',(1.0,1.22460635382238E-016,0.0));
#399=SURFACE_STYLE_FILL_AREA(#440);
#400=ORIENTED_EDGE('',*,*,#117,.F.);
#401=ORIENTED_EDGE('',*,*,#111,.F.);
#402=ORIENTED_EDGE('',*,*,#105,.F.);
#403=ORIENTED_EDGE('',*,*,#121,.T.);
#404=CARTESIAN_POINT('',(0.0,1.28319479239244E-014,12.4019237886466));
#405=DIRECTION('',(0.0,-0.0,1.0));
#406=DIRECTION('',(-1.0,-1.66161416589077E-016,0.0));
#407=CARTESIAN_POINT('',(0.0,1.28319479239244E-014,9.80384757729325));
#408=DIRECTION('',(-0.0,0.0,-1.0));
#409=DIRECTION('',(-1.0,-1.66161416589077E-016,0.0));
#410=DIRECTION('',(-0.0,-0.0,1.0));
#411=DIRECTION('',(0.866025403784435,2.4995402909955E-016,0.500000000000006));
#412=SURFACE_STYLE_FILL_AREA(#441);
#413=ORIENTED_EDGE('',*,*,#81,.T.);
#414=ORIENTED_EDGE('',*,*,#61,.F.);
#415=ORIENTED_EDGE('',*,*,#103,.T.);
#416=ORIENTED_EDGE('',*,*,#67,.T.);
#417=CARTESIAN_POINT('',(0.0,1.28319479239244E-014,7.49999999999997));
#418=DIRECTION('',(0.0,-0.0,1.0));
#419=DIRECTION('',(-1.0,-1.66161416589077E-016,0.0));
#420=CARTESIAN_POINT('',(0.0,1.28319479239244E-014,15.0));
#421=DIRECTION('',(-0.0,0.0,-1.0));
#422=DIRECTION('',(-1.0,-1.66161416589077E-016,0.0));
#423=CARTESIAN_POINT('',(0.0,1.28319479239244E-014,15.0));
#424=DIRECTION('',(-0.0,0.0,-1.0));
#425=DIRECTION('',(-1.0,-1.66161416589077E-016,0.0));
#426=DIRECTION('',(0.866025403784435,2.4995402909955E-016,-0.500000000000006));
#427=CARTESIAN_POINT('',(0.0,1.28319479239244E-014,9.80384757729325));
#428=DIRECTION('',(-0.0,0.0,-1.0));
#429=DIRECTION('',(-1.0,-1.66161416589077E-016,0.0));
#430=CARTESIAN_POINT('',(0.0,1.28319479239244E-014,-2.8421709430404E-014));
#431=DIRECTION('',(-0.0,0.0,-1.0));
#432=DIRECTION('',(-1.0,-1.66161416589077E-016,0.0));
#433=FILL_AREA_STYLE('',(#442));
#434=FILL_AREA_STYLE('',(#443));
#435=FILL_AREA_STYLE('',(#444));
#436=FILL_AREA_STYLE('',(#445));
#437=FILL_AREA_STYLE('',(#446));
#438=FILL_AREA_STYLE('',(#447));
#439=FILL_AREA_STYLE('',(#448));
#440=FILL_AREA_STYLE('',(#449));
#441=FILL_AREA_STYLE('',(#450));
#442=FILL_AREA_STYLE_COLOUR('',#451);
#443=FILL_AREA_STYLE_COLOUR('',#452);
#444=FILL_AREA_STYLE_COLOUR('',#453);
#445=FILL_AREA_STYLE_COLOUR('',#454);
#446=FILL_AREA_STYLE_COLOUR('',#455);
#447=FILL_AREA_STYLE_COLOUR('',#456);
#448=FILL_AREA_STYLE_COLOUR('',#457);
#449=FILL_AREA_STYLE_COLOUR('',#458);
#450=FILL_AREA_STYLE_COLOUR('',#459);
#451=COLOUR_RGB('',0.509803950786591,0.509803950786591,0.588235318660736);
#452=COLOUR_RGB('',0.509803950786591,0.509803950786591,0.588235318660736);
#453=COLOUR_RGB('',0.509803950786591,0.509803950786591,0.588235318660736);
#454=COLOUR_RGB('',0.509803950786591,0.509803950786591,0.588235318660736);
#455=COLOUR_RGB('',0.509803950786591,0.509803950786591,0.588235318660736);
#456=COLOUR_RGB('',0.509803950786591,0.509803950786591,0.588235318660736);
#457=COLOUR_RGB('',0.509803950786591,0.509803950786591,0.588235318660736);
#458=COLOUR_RGB('',0.509803950786591,0.509803950786591,0.588235318660736);
#459=COLOUR_RGB('',0.509803950786591,0.509803950786591,0.588235318660736);
ENDSEC;
END-ISO-10303-21;
