ISO-10303-21;
HEADER;
FILE_DESCRIPTION(('STEP AP214'),'1');
FILE_NAME(' ','  ',('TraceParts'),('TraceParts S.A.'),'XStep 1.0',' ',' ');
FILE_SCHEMA(('automotive_design'));
ENDSEC;
DATA;
#1=MECHANICAL_DESIGN_GEOMETRIC_PRESENTATION_REPRESENTATION(' ',(#10,#11,#12,#13,#14,#15,#16,#17,#18,#19,#20,#21,#22,#23,#24,#25,#26,#27,#28,#29,#30,#31,#32,#33,#34,#35,#36,#37,#38,#39,#40,#41,#42,#43,#44),#6);
#2=PRODUCT_DEFINITION_CONTEXT('',#45,'design');
#3=APPLICATION_PROTOCOL_DEFINITION('INTERNATIONAL STANDARD','automotive_design',1994,#45);
#4=PRODUCT_CATEGORY_RELATIONSHIP('NONE','NONE',#46,#47);
#5=SHAPE_DEFINITION_REPRESENTATION(#48,#49);
#6= (GEOMETRIC_REPRESENTATION_CONTEXT(3)GLOBAL_UNCERTAINTY_ASSIGNED_CONTEXT((#52))GLOBAL_UNIT_ASSIGNED_CONTEXT((#54,#55,#56))REPRESENTATION_CONTEXT('NONE','WORKSPACE'));
#10=STYLED_ITEM('',(#58),#59);
#11=STYLED_ITEM('',(#60),#61);
#12=STYLED_ITEM('',(#62),#63);
#13=STYLED_ITEM('',(#64),#65);
#14=STYLED_ITEM('',(#66),#67);
#15=STYLED_ITEM('',(#68),#69);
#16=STYLED_ITEM('',(#70),#71);
#17=STYLED_ITEM('',(#72),#73);
#18=STYLED_ITEM('',(#74),#75);
#19=STYLED_ITEM('',(#76),#77);
#20=STYLED_ITEM('',(#78),#79);
#21=STYLED_ITEM('',(#80),#81);
#22=STYLED_ITEM('',(#82),#83);
#23=STYLED_ITEM('',(#84),#85);
#24=STYLED_ITEM('',(#86),#87);
#25=STYLED_ITEM('',(#88),#89);
#26=STYLED_ITEM('',(#90),#91);
#27=STYLED_ITEM('',(#92),#93);
#28=STYLED_ITEM('',(#94),#95);
#29=STYLED_ITEM('',(#96),#97);
#30=STYLED_ITEM('',(#98),#99);
#31=STYLED_ITEM('',(#100),#101);
#32=STYLED_ITEM('',(#102),#103);
#33=STYLED_ITEM('',(#104),#105);
#34=STYLED_ITEM('',(#106),#107);
#35=STYLED_ITEM('',(#108),#109);
#36=STYLED_ITEM('',(#110),#111);
#37=STYLED_ITEM('',(#112),#113);
#38=STYLED_ITEM('',(#114),#115);
#39=STYLED_ITEM('',(#116),#117);
#40=STYLED_ITEM('',(#118),#119);
#41=STYLED_ITEM('',(#120),#121);
#42=STYLED_ITEM('',(#122),#123);
#43=STYLED_ITEM('',(#124),#125);
#44=STYLED_ITEM('',(#126),#127);
#45=APPLICATION_CONTEXT(' ');
#46=PRODUCT_CATEGORY('part','NONE');
#47=PRODUCT_RELATED_PRODUCT_CATEGORY('detail',' ',(#128));
#48=PRODUCT_DEFINITION_SHAPE('NONE','NONE',#129);
#49=ADVANCED_BREP_SHAPE_REPRESENTATION('1',(#99,#130),#6);
#52=UNCERTAINTY_MEASURE_WITH_UNIT(LENGTH_MEASURE(1.0E-006),#54,'','');
#54= (CONVERSION_BASED_UNIT('MILLIMETRE',#133)LENGTH_UNIT()NAMED_UNIT(#136));
#55= (NAMED_UNIT(#138)PLANE_ANGLE_UNIT()SI_UNIT($,.RADIAN.));
#56= (NAMED_UNIT(#138)SOLID_ANGLE_UNIT()SI_UNIT($,.STERADIAN.));
#58=PRESENTATION_STYLE_ASSIGNMENT((#144));
#59=EDGE_CURVE('',#61,#87,#145,.T.);
#60=PRESENTATION_STYLE_ASSIGNMENT((#146));
#61=VERTEX_POINT('',#147);
#62=PRESENTATION_STYLE_ASSIGNMENT((#148));
#63=EDGE_CURVE('',#83,#105,#149,.T.);
#64=PRESENTATION_STYLE_ASSIGNMENT((#150));
#65=ADVANCED_FACE('',(#151),#152,.F.);
#66=PRESENTATION_STYLE_ASSIGNMENT((#153));
#67=ADVANCED_FACE('',(#154),#155,.F.);
#68=PRESENTATION_STYLE_ASSIGNMENT((#156));
#69=ADVANCED_FACE('',(#157,#158),#159,.T.);
#70=PRESENTATION_STYLE_ASSIGNMENT((#160));
#71=EDGE_CURVE('',#93,#101,#161,.T.);
#72=PRESENTATION_STYLE_ASSIGNMENT((#162));
#73=ADVANCED_FACE('',(#163),#164,.F.);
#74=PRESENTATION_STYLE_ASSIGNMENT((#165));
#75=EDGE_CURVE('',#83,#93,#166,.T.);
#76=PRESENTATION_STYLE_ASSIGNMENT((#167));
#77=EDGE_CURVE('',#127,#111,#168,.T.);
#78=PRESENTATION_STYLE_ASSIGNMENT((#169));
#79=EDGE_CURVE('',#87,#113,#170,.T.);
#80=PRESENTATION_STYLE_ASSIGNMENT((#171));
#81=ADVANCED_FACE('',(#172,#173),#174,.T.);
#82=PRESENTATION_STYLE_ASSIGNMENT((#175));
#83=VERTEX_POINT('',#176);
#84=PRESENTATION_STYLE_ASSIGNMENT((#177));
#85=EDGE_CURVE('',#95,#113,#178,.T.);
#86=PRESENTATION_STYLE_ASSIGNMENT((#179));
#87=VERTEX_POINT('',#180);
#88=PRESENTATION_STYLE_ASSIGNMENT((#181));
#89=ADVANCED_FACE('',(#182),#183,.T.);
#90=PRESENTATION_STYLE_ASSIGNMENT((#184));
#91=EDGE_CURVE('',#101,#93,#185,.T.);
#92=PRESENTATION_STYLE_ASSIGNMENT((#186));
#93=VERTEX_POINT('',#187);
#94=PRESENTATION_STYLE_ASSIGNMENT((#188));
#95=VERTEX_POINT('',#189);
#96=PRESENTATION_STYLE_ASSIGNMENT((#190));
#97=EDGE_CURVE('',#113,#111,#191,.T.);
#98=PRESENTATION_STYLE_ASSIGNMENT((#192));
#99=MANIFOLD_SOLID_BREP('1',#193);
#100=PRESENTATION_STYLE_ASSIGNMENT((#194));
#101=VERTEX_POINT('',#195);
#102=PRESENTATION_STYLE_ASSIGNMENT((#196));
#103=EDGE_CURVE('',#111,#127,#197,.T.);
#104=PRESENTATION_STYLE_ASSIGNMENT((#198));
#105=VERTEX_POINT('',#199);
#106=PRESENTATION_STYLE_ASSIGNMENT((#200));
#107=EDGE_CURVE('',#95,#61,#201,.T.);
#108=PRESENTATION_STYLE_ASSIGNMENT((#202));
#109=EDGE_CURVE('',#113,#95,#203,.T.);
#110=PRESENTATION_STYLE_ASSIGNMENT((#204));
#111=VERTEX_POINT('',#205);
#112=PRESENTATION_STYLE_ASSIGNMENT((#206));
#113=VERTEX_POINT('',#207);
#114=PRESENTATION_STYLE_ASSIGNMENT((#208));
#115=EDGE_CURVE('',#87,#61,#209,.T.);
#116=PRESENTATION_STYLE_ASSIGNMENT((#210));
#117=EDGE_CURVE('',#101,#105,#211,.T.);
#118=PRESENTATION_STYLE_ASSIGNMENT((#212));
#119=EDGE_CURVE('',#105,#83,#213,.T.);
#120=PRESENTATION_STYLE_ASSIGNMENT((#214));
#121=ADVANCED_FACE('',(#215),#216,.F.);
#122=PRESENTATION_STYLE_ASSIGNMENT((#217));
#123=EDGE_CURVE('',#127,#95,#218,.T.);
#124=PRESENTATION_STYLE_ASSIGNMENT((#219));
#125=ADVANCED_FACE('',(#220),#221,.T.);
#126=PRESENTATION_STYLE_ASSIGNMENT((#222));
#127=VERTEX_POINT('',#223);
#128=PRODUCT('1','1','PART-1-DESC',(#224));
#129=PRODUCT_DEFINITION('NONE','NONE',#225,#2);
#130=AXIS2_PLACEMENT_3D('',#226,#227,#228);
#133=LENGTH_MEASURE_WITH_UNIT(LENGTH_MEASURE(1.0),#229);
#136=DIMENSIONAL_EXPONENTS(1.0,0.0,0.0,0.0,0.0,0.0,0.0);
#138=DIMENSIONAL_EXPONENTS(0.0,0.0,0.0,0.0,0.0,0.0,0.0);
#144=CURVE_STYLE('',#230,POSITIVE_LENGTH_MEASURE(1.0E-006),#231);
#145=CIRCLE('',#232,11.6);
#146=POINT_STYLE(' ',#233,POSITIVE_LENGTH_MEASURE(1.0E-006),#234);
#147=CARTESIAN_POINT('',(-11.6,9.91126177005804E-015,-2.8421709430404E-014));
#148=CURVE_STYLE('',#235,POSITIVE_LENGTH_MEASURE(1.0E-006),#236);
#149=CIRCLE('',#237,18.0);
#150=SURFACE_STYLE_USAGE(.BOTH.,#238);
#151=FACE_OUTER_BOUND('',#239,.T.);
#152=CONICAL_SURFACE('',#240,13.55,1.04719755119659);
#153=SURFACE_STYLE_USAGE(.BOTH.,#241);
#154=FACE_OUTER_BOUND('',#242,.T.);
#155=CONICAL_SURFACE('',#243,13.55,1.04719755119659);
#156=SURFACE_STYLE_USAGE(.BOTH.,#244);
#157=FACE_BOUND('',#245,.T.);
#158=FACE_OUTER_BOUND('',#246,.T.);
#159=PLANE('',#247);
#160=CURVE_STYLE('',#248,POSITIVE_LENGTH_MEASURE(1.0E-006),#249);
#161=CIRCLE('',#250,18.0);
#162=SURFACE_STYLE_USAGE(.BOTH.,#251);
#163=FACE_OUTER_BOUND('',#252,.T.);
#164=CYLINDRICAL_SURFACE('',#253,11.6);
#165=CURVE_STYLE('',#254,POSITIVE_LENGTH_MEASURE(1.0E-006),#255);
#166=LINE('',#256,#257);
#167=CURVE_STYLE('',#258,POSITIVE_LENGTH_MEASURE(1.0E-006),#259);
#168=CIRCLE('',#260,15.5);
#169=CURVE_STYLE('',#261,POSITIVE_LENGTH_MEASURE(1.0E-006),#262);
#170=LINE('',#263,#264);
#171=SURFACE_STYLE_USAGE(.BOTH.,#265);
#172=FACE_OUTER_BOUND('',#266,.T.);
#173=FACE_BOUND('',#267,.T.);
#174=PLANE('',#268);
#175=POINT_STYLE(' ',#269,POSITIVE_LENGTH_MEASURE(1.0E-006),#270);
#176=CARTESIAN_POINT('',(18.0,1.69115962625296E-014,-2.8421709430404E-014));
#177=CURVE_STYLE('',#271,POSITIVE_LENGTH_MEASURE(1.0E-006),#272);
#178=CIRCLE('',#273,11.6);
#179=POINT_STYLE(' ',#274,POSITIVE_LENGTH_MEASURE(1.0E-006),#275);
#180=CARTESIAN_POINT('',(11.6,1.50909513774259E-014,-2.8421709430404E-014));
#181=SURFACE_STYLE_USAGE(.BOTH.,#276);
#182=FACE_OUTER_BOUND('',#277,.T.);
#183=CYLINDRICAL_SURFACE('',#278,18.0);
#184=CURVE_STYLE('',#279,POSITIVE_LENGTH_MEASURE(1.0E-006),#280);
#185=CIRCLE('',#281,18.0);
#186=POINT_STYLE(' ',#282,POSITIVE_LENGTH_MEASURE(1.0E-006),#283);
#187=CARTESIAN_POINT('',(18.0,1.69115962625296E-014,7.49999999999997));
#188=POINT_STYLE(' ',#284,POSITIVE_LENGTH_MEASURE(1.0E-006),#285);
#189=CARTESIAN_POINT('',(-11.6,1.02326189251754E-014,5.24833395016043));
#190=CURVE_STYLE('',#286,POSITIVE_LENGTH_MEASURE(1.0E-006),#287);
#191=LINE('',#288,#289);
#192=SURFACE_STYLE_USAGE(.BOTH.,#290);
#193=CLOSED_SHELL('',(#73,#89,#67,#65,#81,#125,#69,#121));
#194=POINT_STYLE(' ',#291,POSITIVE_LENGTH_MEASURE(1.0E-006),#292);
#195=CARTESIAN_POINT('',(-18.0,9.58674108629511E-015,7.49999999999997));
#196=CURVE_STYLE('',#293,POSITIVE_LENGTH_MEASURE(1.0E-006),#294);
#197=CIRCLE('',#295,15.5);
#198=POINT_STYLE(' ',#296,POSITIVE_LENGTH_MEASURE(1.0E-006),#297);
#199=CARTESIAN_POINT('',(-18.0,9.12751370361172E-015,-2.8421709430404E-014));
#200=CURVE_STYLE('',#298,POSITIVE_LENGTH_MEASURE(1.0E-006),#299);
#201=LINE('',#300,#301);
#202=CURVE_STYLE('',#302,POSITIVE_LENGTH_MEASURE(1.0E-006),#303);
#203=CIRCLE('',#304,11.6);
#204=POINT_STYLE(' ',#305,POSITIVE_LENGTH_MEASURE(1.0E-006),#306);
#205=CARTESIAN_POINT('',(15.5,1.6200406854286E-014,7.49999999999997));
#206=POINT_STYLE(' ',#307,POSITIVE_LENGTH_MEASURE(1.0E-006),#308);
#207=CARTESIAN_POINT('',(11.6,1.50909513774259E-014,5.24833395016043));
#208=CURVE_STYLE('',#309,POSITIVE_LENGTH_MEASURE(1.0E-006),#310);
#209=CIRCLE('',#311,11.6);
#210=CURVE_STYLE('',#312,POSITIVE_LENGTH_MEASURE(1.0E-006),#313);
#211=LINE('',#314,#315);
#212=CURVE_STYLE('',#316,POSITIVE_LENGTH_MEASURE(1.0E-006),#317);
#213=CIRCLE('',#318,18.0);
#214=SURFACE_STYLE_USAGE(.BOTH.,#319);
#215=FACE_OUTER_BOUND('',#320,.T.);
#216=CYLINDRICAL_SURFACE('',#321,11.6);
#217=CURVE_STYLE('',#322,POSITIVE_LENGTH_MEASURE(1.0E-006),#323);
#218=LINE('',#324,#325);
#219=SURFACE_STYLE_USAGE(.BOTH.,#326);
#220=FACE_OUTER_BOUND('',#327,.T.);
#221=CYLINDRICAL_SURFACE('',#328,18.0);
#222=POINT_STYLE(' ',#329,POSITIVE_LENGTH_MEASURE(1.0E-006),#330);
#223=CARTESIAN_POINT('',(-15.5,9.89289267475071E-015,7.49999999999997));
#224=PRODUCT_CONTEXT('',#45,'mechanical');
#225=PRODUCT_DEFINITION_FORMATION_WITH_SPECIFIED_SOURCE(' ','NONE',#128,.NOT_KNOWN.);
#226=CARTESIAN_POINT('',(0.0,0.0,0.0));
#227=DIRECTION('',(0.0,0.0,1.0));
#228=DIRECTION('',(1.0,0.0,0.0));
#229= (NAMED_UNIT(#136)LENGTH_UNIT()SI_UNIT(.MILLI.,.METRE.));
#230=DRAUGHTING_PRE_DEFINED_CURVE_FONT('continuous');
#231=COLOUR_RGB('',0.509803950786591,0.509803950786591,0.588235318660736);
#232=AXIS2_PLACEMENT_3D('',#332,#333,#334);
#233=PRE_DEFINED_MARKER('');
#234=COLOUR_RGB('',0.509803950786591,0.509803950786591,0.588235318660736);
#235=DRAUGHTING_PRE_DEFINED_CURVE_FONT('continuous');
#236=COLOUR_RGB('',0.509803950786591,0.509803950786591,0.588235318660736);
#237=AXIS2_PLACEMENT_3D('',#335,#336,#337);
#238=SURFACE_SIDE_STYLE('',(#338));
#239=EDGE_LOOP('',(#339,#340,#341,#342));
#240=AXIS2_PLACEMENT_3D('',#343,#344,#345);
#241=SURFACE_SIDE_STYLE('',(#346));
#242=EDGE_LOOP('',(#347,#348,#349,#350));
#243=AXIS2_PLACEMENT_3D('',#351,#352,#353);
#244=SURFACE_SIDE_STYLE('',(#354));
#245=EDGE_LOOP('',(#355,#356));
#246=EDGE_LOOP('',(#357,#358));
#247=AXIS2_PLACEMENT_3D('',#359,#360,#361);
#248=DRAUGHTING_PRE_DEFINED_CURVE_FONT('continuous');
#249=COLOUR_RGB('',0.509803950786591,0.509803950786591,0.588235318660736);
#250=AXIS2_PLACEMENT_3D('',#362,#363,#364);
#251=SURFACE_SIDE_STYLE('',(#365));
#252=EDGE_LOOP('',(#366,#367,#368,#369));
#253=AXIS2_PLACEMENT_3D('',#370,#371,#372);
#254=DRAUGHTING_PRE_DEFINED_CURVE_FONT('continuous');
#255=COLOUR_RGB('',0.509803950786591,0.509803950786591,0.588235318660736);
#256=CARTESIAN_POINT('',(18.0,1.69115962625296E-014,3.74999999999997));
#257=VECTOR('',#373,1.0);
#258=DRAUGHTING_PRE_DEFINED_CURVE_FONT('continuous');
#259=COLOUR_RGB('',0.509803950786591,0.509803950786591,0.588235318660736);
#260=AXIS2_PLACEMENT_3D('',#374,#375,#376);
#261=DRAUGHTING_PRE_DEFINED_CURVE_FONT('continuous');
#262=COLOUR_RGB('',0.509803950786591,0.509803950786591,0.588235318660736);
#263=CARTESIAN_POINT('',(11.6,1.50909513774259E-014,2.6241669750802));
#264=VECTOR('',#377,1.0);
#265=SURFACE_SIDE_STYLE('',(#378));
#266=EDGE_LOOP('',(#379,#380));
#267=EDGE_LOOP('',(#381,#382));
#268=AXIS2_PLACEMENT_3D('',#383,#384,#385);
#269=PRE_DEFINED_MARKER('');
#270=COLOUR_RGB('',0.509803950786591,0.509803950786591,0.588235318660736);
#271=DRAUGHTING_PRE_DEFINED_CURVE_FONT('continuous');
#272=COLOUR_RGB('',0.509803950786591,0.509803950786591,0.588235318660736);
#273=AXIS2_PLACEMENT_3D('',#386,#387,#388);
#274=PRE_DEFINED_MARKER('');
#275=COLOUR_RGB('',0.509803950786591,0.509803950786591,0.588235318660736);
#276=SURFACE_SIDE_STYLE('',(#389));
#277=EDGE_LOOP('',(#390,#391,#392,#393));
#278=AXIS2_PLACEMENT_3D('',#394,#395,#396);
#279=DRAUGHTING_PRE_DEFINED_CURVE_FONT('continuous');
#280=COLOUR_RGB('',0.509803950786591,0.509803950786591,0.588235318660736);
#281=AXIS2_PLACEMENT_3D('',#397,#398,#399);
#282=PRE_DEFINED_MARKER('');
#283=COLOUR_RGB('',0.509803950786591,0.509803950786591,0.588235318660736);
#284=PRE_DEFINED_MARKER('');
#285=COLOUR_RGB('',0.509803950786591,0.509803950786591,0.588235318660736);
#286=DRAUGHTING_PRE_DEFINED_CURVE_FONT('continuous');
#287=COLOUR_RGB('',0.509803950786591,0.509803950786591,0.588235318660736);
#288=CARTESIAN_POINT('',(13.55,1.56456791158559E-014,6.3741669750802));
#289=VECTOR('',#400,1.0);
#290=SURFACE_SIDE_STYLE('',(#401));
#291=PRE_DEFINED_MARKER('');
#292=COLOUR_RGB('',0.509803950786591,0.509803950786591,0.588235318660736);
#293=DRAUGHTING_PRE_DEFINED_CURVE_FONT('continuous');
#294=COLOUR_RGB('',0.509803950786591,0.509803950786591,0.588235318660736);
#295=AXIS2_PLACEMENT_3D('',#402,#403,#404);
#296=PRE_DEFINED_MARKER('');
#297=COLOUR_RGB('',0.509803950786591,0.509803950786591,0.588235318660736);
#298=DRAUGHTING_PRE_DEFINED_CURVE_FONT('continuous');
#299=COLOUR_RGB('',0.509803950786591,0.509803950786591,0.588235318660736);
#300=CARTESIAN_POINT('',(-11.6,8.49111366892487E-015,2.6241669750802));
#301=VECTOR('',#405,1.0);
#302=DRAUGHTING_PRE_DEFINED_CURVE_FONT('continuous');
#303=COLOUR_RGB('',0.509803950786591,0.509803950786591,0.588235318660736);
#304=AXIS2_PLACEMENT_3D('',#406,#407,#408);
#305=PRE_DEFINED_MARKER('');
#306=COLOUR_RGB('',0.509803950786591,0.509803950786591,0.588235318660736);
#307=PRE_DEFINED_MARKER('');
#308=COLOUR_RGB('',0.509803950786591,0.509803950786591,0.588235318660736);
#309=DRAUGHTING_PRE_DEFINED_CURVE_FONT('continuous');
#310=COLOUR_RGB('',0.509803950786591,0.509803950786591,0.588235318660736);
#311=AXIS2_PLACEMENT_3D('',#409,#410,#411);
#312=DRAUGHTING_PRE_DEFINED_CURVE_FONT('continuous');
#313=COLOUR_RGB('',0.509803950786591,0.509803950786591,0.588235318660736);
#314=CARTESIAN_POINT('',(-18.0,6.67046878382116E-015,3.74999999999997));
#315=VECTOR('',#412,1.0);
#316=DRAUGHTING_PRE_DEFINED_CURVE_FONT('continuous');
#317=COLOUR_RGB('',0.509803950786591,0.509803950786591,0.588235318660736);
#318=AXIS2_PLACEMENT_3D('',#413,#414,#415);
#319=SURFACE_SIDE_STYLE('',(#416));
#320=EDGE_LOOP('',(#417,#418,#419,#420));
#321=AXIS2_PLACEMENT_3D('',#421,#422,#423);
#322=DRAUGHTING_PRE_DEFINED_CURVE_FONT('continuous');
#323=COLOUR_RGB('',0.509803950786591,0.509803950786591,0.588235318660736);
#324=CARTESIAN_POINT('',(-13.55,7.93638593049484E-015,6.3741669750802));
#325=VECTOR('',#424,1.0);
#326=SURFACE_SIDE_STYLE('',(#425));
#327=EDGE_LOOP('',(#426,#427,#428,#429));
#328=AXIS2_PLACEMENT_3D('',#430,#431,#432);
#329=PRE_DEFINED_MARKER('');
#330=COLOUR_RGB('',0.509803950786591,0.509803950786591,0.588235318660736);
#332=CARTESIAN_POINT('',(0.0,1.17910325231754E-014,-2.8421709430404E-014));
#333=DIRECTION('',(-0.0,0.0,-1.0));
#334=DIRECTION('',(-1.0,-1.6201512791522E-016,0.0));
#335=CARTESIAN_POINT('',(0.0,1.17910325231754E-014,-2.8421709430404E-014));
#336=DIRECTION('',(-0.0,0.0,-1.0));
#337=DIRECTION('',(-1.0,-1.6201512791522E-016,0.0));
#338=SURFACE_STYLE_FILL_AREA(#433);
#339=ORIENTED_EDGE('',*,*,#123,.T.);
#340=ORIENTED_EDGE('',*,*,#85,.T.);
#341=ORIENTED_EDGE('',*,*,#97,.T.);
#342=ORIENTED_EDGE('',*,*,#77,.F.);
#343=CARTESIAN_POINT('',(0.0,1.17910325231754E-014,6.3741669750802));
#344=DIRECTION('',(0.0,-0.0,1.0));
#345=DIRECTION('',(-1.0,-1.6201512791522E-016,0.0));
#346=SURFACE_STYLE_FILL_AREA(#434);
#347=ORIENTED_EDGE('',*,*,#123,.F.);
#348=ORIENTED_EDGE('',*,*,#103,.F.);
#349=ORIENTED_EDGE('',*,*,#97,.F.);
#350=ORIENTED_EDGE('',*,*,#109,.T.);
#351=CARTESIAN_POINT('',(0.0,1.17910325231754E-014,6.3741669750802));
#352=DIRECTION('',(0.0,-0.0,1.0));
#353=DIRECTION('',(-1.0,-1.6201512791522E-016,0.0));
#354=SURFACE_STYLE_FILL_AREA(#435);
#355=ORIENTED_EDGE('',*,*,#59,.F.);
#356=ORIENTED_EDGE('',*,*,#115,.F.);
#357=ORIENTED_EDGE('',*,*,#119,.T.);
#358=ORIENTED_EDGE('',*,*,#63,.T.);
#359=CARTESIAN_POINT('',(-14.8,9.51938773683488E-015,-2.8421709430404E-014));
#360=DIRECTION('',(0.0,0.0,-1.0));
#361=DIRECTION('',(1.0,1.22460635382238E-016,0.0));
#362=CARTESIAN_POINT('',(0.0,1.17910325231754E-014,7.49999999999997));
#363=DIRECTION('',(-0.0,0.0,-1.0));
#364=DIRECTION('',(-1.0,-1.6201512791522E-016,0.0));
#365=SURFACE_STYLE_FILL_AREA(#436);
#366=ORIENTED_EDGE('',*,*,#107,.F.);
#367=ORIENTED_EDGE('',*,*,#109,.F.);
#368=ORIENTED_EDGE('',*,*,#79,.F.);
#369=ORIENTED_EDGE('',*,*,#115,.T.);
#370=CARTESIAN_POINT('',(0.0,1.17910325231754E-014,2.6241669750802));
#371=DIRECTION('',(0.0,-0.0,1.0));
#372=DIRECTION('',(-1.0,-1.6201512791522E-016,0.0));
#373=DIRECTION('',(-0.0,-0.0,1.0));
#374=CARTESIAN_POINT('',(0.0,1.17910325231754E-014,7.49999999999997));
#375=DIRECTION('',(-0.0,0.0,-1.0));
#376=DIRECTION('',(-1.0,-1.6201512791522E-016,0.0));
#377=DIRECTION('',(0.0,0.0,1.0));
#378=SURFACE_STYLE_FILL_AREA(#437);
#379=ORIENTED_EDGE('',*,*,#91,.F.);
#380=ORIENTED_EDGE('',*,*,#71,.F.);
#381=ORIENTED_EDGE('',*,*,#77,.T.);
#382=ORIENTED_EDGE('',*,*,#103,.T.);
#383=CARTESIAN_POINT('',(-16.75,9.73981688052291E-015,7.49999999999997));
#384=DIRECTION('',(0.0,0.0,1.0));
#385=DIRECTION('',(-1.0,-1.22460635382238E-016,0.0));
#386=CARTESIAN_POINT('',(0.0,1.17910325231754E-014,5.24833395016043));
#387=DIRECTION('',(-0.0,0.0,-1.0));
#388=DIRECTION('',(-1.0,-1.6201512791522E-016,0.0));
#389=SURFACE_STYLE_FILL_AREA(#438);
#390=ORIENTED_EDGE('',*,*,#117,.F.);
#391=ORIENTED_EDGE('',*,*,#91,.T.);
#392=ORIENTED_EDGE('',*,*,#75,.F.);
#393=ORIENTED_EDGE('',*,*,#119,.F.);
#394=CARTESIAN_POINT('',(0.0,1.17910325231754E-014,3.74999999999997));
#395=DIRECTION('',(0.0,-0.0,1.0));
#396=DIRECTION('',(-1.0,-1.6201512791522E-016,0.0));
#397=CARTESIAN_POINT('',(0.0,1.17910325231754E-014,7.49999999999997));
#398=DIRECTION('',(-0.0,0.0,-1.0));
#399=DIRECTION('',(-1.0,-1.6201512791522E-016,0.0));
#400=DIRECTION('',(0.866025403784436,2.46363237776566E-016,0.500000000000005));
#401=SURFACE_STYLE_FILL_AREA(#439);
#402=CARTESIAN_POINT('',(0.0,1.17910325231754E-014,7.49999999999997));
#403=DIRECTION('',(-0.0,0.0,-1.0));
#404=DIRECTION('',(-1.0,-1.6201512791522E-016,0.0));
#405=DIRECTION('',(0.0,0.0,-1.0));
#406=CARTESIAN_POINT('',(0.0,1.17910325231754E-014,5.24833395016043));
#407=DIRECTION('',(-0.0,0.0,-1.0));
#408=DIRECTION('',(-1.0,-1.6201512791522E-016,0.0));
#409=CARTESIAN_POINT('',(0.0,1.17910325231754E-014,-2.8421709430404E-014));
#410=DIRECTION('',(-0.0,0.0,-1.0));
#411=DIRECTION('',(-1.0,-1.6201512791522E-016,0.0));
#412=DIRECTION('',(0.0,0.0,-1.0));
#413=CARTESIAN_POINT('',(0.0,1.17910325231754E-014,-2.8421709430404E-014));
#414=DIRECTION('',(-0.0,0.0,-1.0));
#415=DIRECTION('',(-1.0,-1.6201512791522E-016,0.0));
#416=SURFACE_STYLE_FILL_AREA(#440);
#417=ORIENTED_EDGE('',*,*,#107,.T.);
#418=ORIENTED_EDGE('',*,*,#59,.T.);
#419=ORIENTED_EDGE('',*,*,#79,.T.);
#420=ORIENTED_EDGE('',*,*,#85,.F.);
#421=CARTESIAN_POINT('',(0.0,1.17910325231754E-014,2.6241669750802));
#422=DIRECTION('',(0.0,-0.0,1.0));
#423=DIRECTION('',(-1.0,-1.6201512791522E-016,0.0));
#424=DIRECTION('',(0.866025403784436,2.46363237776566E-016,-0.500000000000005));
#425=SURFACE_STYLE_FILL_AREA(#441);
#426=ORIENTED_EDGE('',*,*,#117,.T.);
#427=ORIENTED_EDGE('',*,*,#63,.F.);
#428=ORIENTED_EDGE('',*,*,#75,.T.);
#429=ORIENTED_EDGE('',*,*,#71,.T.);
#430=CARTESIAN_POINT('',(0.0,1.17910325231754E-014,3.74999999999997));
#431=DIRECTION('',(0.0,-0.0,1.0));
#432=DIRECTION('',(-1.0,-1.6201512791522E-016,0.0));
#433=FILL_AREA_STYLE('',(#442));
#434=FILL_AREA_STYLE('',(#443));
#435=FILL_AREA_STYLE('',(#444));
#436=FILL_AREA_STYLE('',(#445));
#437=FILL_AREA_STYLE('',(#446));
#438=FILL_AREA_STYLE('',(#447));
#439=FILL_AREA_STYLE('',(#448));
#440=FILL_AREA_STYLE('',(#449));
#441=FILL_AREA_STYLE('',(#450));
#442=FILL_AREA_STYLE_COLOUR('',#451);
#443=FILL_AREA_STYLE_COLOUR('',#452);
#444=FILL_AREA_STYLE_COLOUR('',#453);
#445=FILL_AREA_STYLE_COLOUR('',#454);
#446=FILL_AREA_STYLE_COLOUR('',#455);
#447=FILL_AREA_STYLE_COLOUR('',#456);
#448=FILL_AREA_STYLE_COLOUR('',#457);
#449=FILL_AREA_STYLE_COLOUR('',#458);
#450=FILL_AREA_STYLE_COLOUR('',#459);
#451=COLOUR_RGB('',0.509803950786591,0.509803950786591,0.588235318660736);
#452=COLOUR_RGB('',0.509803950786591,0.509803950786591,0.588235318660736);
#453=COLOUR_RGB('',0.509803950786591,0.509803950786591,0.588235318660736);
#454=COLOUR_RGB('',0.509803950786591,0.509803950786591,0.588235318660736);
#455=COLOUR_RGB('',0.509803950786591,0.509803950786591,0.588235318660736);
#456=COLOUR_RGB('',0.509803950786591,0.509803950786591,0.588235318660736);
#457=COLOUR_RGB('',0.509803950786591,0.509803950786591,0.588235318660736);
#458=COLOUR_RGB('',0.509803950786591,0.509803950786591,0.588235318660736);
#459=COLOUR_RGB('',0.509803950786591,0.509803950786591,0.588235318660736);
ENDSEC;
END-ISO-10303-21;
