ISO-10303-21;
HEADER;
FILE_DESCRIPTION(('STEP AP214'),'1');
FILE_NAME(' ','  ',('TraceParts'),('TraceParts S.A.'),'XStep 1.0',' ',' ');
FILE_SCHEMA(('automotive_design'));
ENDSEC;
DATA;
#1=MECHANICAL_DESIGN_GEOMETRIC_PRESENTATION_REPRESENTATION(' ',(#10,#11,#12,#13,#14,#15,#16,#17,#18,#19,#20,#21,#22,#23,#24,#25,#26,#27,#28,#29,#30,#31,#32,#33,#34,#35,#36,#37,#38,#39,#40,#41,#42,#43,#44,#45,#46,#47,#48,#49,#50,#51,#52,#53),#6);
#2=PRODUCT_DEFINITION_CONTEXT('',#54,'design');
#3=APPLICATION_PROTOCOL_DEFINITION('INTERNATIONAL STANDARD','automotive_design',1994,#54);
#4=PRODUCT_CATEGORY_RELATIONSHIP('NONE','NONE',#55,#56);
#5=SHAPE_DEFINITION_REPRESENTATION(#57,#58);
#6= (GEOMETRIC_REPRESENTATION_CONTEXT(3)GLOBAL_UNCERTAINTY_ASSIGNED_CONTEXT((#61))GLOBAL_UNIT_ASSIGNED_CONTEXT((#63,#64,#65))REPRESENTATION_CONTEXT('NONE','WORKSPACE'));
#10=STYLED_ITEM('',(#67),#68);
#11=STYLED_ITEM('',(#69),#70);
#12=STYLED_ITEM('',(#71),#72);
#13=STYLED_ITEM('',(#73),#74);
#14=STYLED_ITEM('',(#75),#76);
#15=STYLED_ITEM('',(#77),#78);
#16=STYLED_ITEM('',(#79),#80);
#17=STYLED_ITEM('',(#81),#82);
#18=STYLED_ITEM('',(#83),#84);
#19=STYLED_ITEM('',(#85),#86);
#20=STYLED_ITEM('',(#87),#88);
#21=STYLED_ITEM('',(#89),#90);
#22=STYLED_ITEM('',(#91),#92);
#23=STYLED_ITEM('',(#93),#94);
#24=STYLED_ITEM('',(#95),#96);
#25=STYLED_ITEM('',(#97),#98);
#26=STYLED_ITEM('',(#99),#100);
#27=STYLED_ITEM('',(#101),#102);
#28=STYLED_ITEM('',(#103),#104);
#29=STYLED_ITEM('',(#105),#106);
#30=STYLED_ITEM('',(#107),#108);
#31=STYLED_ITEM('',(#109),#110);
#32=STYLED_ITEM('',(#111),#112);
#33=STYLED_ITEM('',(#113),#114);
#34=STYLED_ITEM('',(#115),#116);
#35=STYLED_ITEM('',(#117),#118);
#36=STYLED_ITEM('',(#119),#120);
#37=STYLED_ITEM('',(#121),#122);
#38=STYLED_ITEM('',(#123),#124);
#39=STYLED_ITEM('',(#125),#126);
#40=STYLED_ITEM('',(#127),#128);
#41=STYLED_ITEM('',(#129),#130);
#42=STYLED_ITEM('',(#131),#132);
#43=STYLED_ITEM('',(#133),#134);
#44=STYLED_ITEM('',(#135),#136);
#45=STYLED_ITEM('',(#137),#138);
#46=STYLED_ITEM('',(#139),#140);
#47=STYLED_ITEM('',(#141),#142);
#48=STYLED_ITEM('',(#143),#144);
#49=STYLED_ITEM('',(#145),#146);
#50=STYLED_ITEM('',(#147),#148);
#51=STYLED_ITEM('',(#149),#150);
#52=STYLED_ITEM('',(#151),#152);
#53=STYLED_ITEM('',(#153),#154);
#54=APPLICATION_CONTEXT(' ');
#55=PRODUCT_CATEGORY('part','NONE');
#56=PRODUCT_RELATED_PRODUCT_CATEGORY('detail',' ',(#155));
#57=PRODUCT_DEFINITION_SHAPE('NONE','NONE',#156);
#58=ADVANCED_BREP_SHAPE_REPRESENTATION('1',(#84,#157),#6);
#61=UNCERTAINTY_MEASURE_WITH_UNIT(LENGTH_MEASURE(1.0E-006),#63,'','');
#63= (CONVERSION_BASED_UNIT('MILLIMETRE',#160)LENGTH_UNIT()NAMED_UNIT(#163));
#64= (NAMED_UNIT(#165)PLANE_ANGLE_UNIT()SI_UNIT($,.RADIAN.));
#65= (NAMED_UNIT(#165)SOLID_ANGLE_UNIT()SI_UNIT($,.STERADIAN.));
#67=PRESENTATION_STYLE_ASSIGNMENT((#171));
#68=EDGE_CURVE('',#150,#108,#172,.T.);
#69=PRESENTATION_STYLE_ASSIGNMENT((#173));
#70=EDGE_CURVE('',#72,#108,#174,.T.);
#71=PRESENTATION_STYLE_ASSIGNMENT((#175));
#72=VERTEX_POINT('',#176);
#73=PRESENTATION_STYLE_ASSIGNMENT((#177));
#74=EDGE_CURVE('',#110,#132,#178,.T.);
#75=PRESENTATION_STYLE_ASSIGNMENT((#179));
#76=ADVANCED_FACE('',(#180),#181,.T.);
#77=PRESENTATION_STYLE_ASSIGNMENT((#182));
#78=VERTEX_POINT('',#183);
#79=PRESENTATION_STYLE_ASSIGNMENT((#184));
#80=EDGE_CURVE('',#78,#72,#185,.T.);
#81=PRESENTATION_STYLE_ASSIGNMENT((#186));
#82=ADVANCED_FACE('',(#187),#188,.T.);
#83=PRESENTATION_STYLE_ASSIGNMENT((#189));
#84=MANIFOLD_SOLID_BREP('1',#190);
#85=PRESENTATION_STYLE_ASSIGNMENT((#191));
#86=EDGE_CURVE('',#140,#148,#192,.T.);
#87=PRESENTATION_STYLE_ASSIGNMENT((#193));
#88=ADVANCED_FACE('',(#194),#195,.T.);
#89=PRESENTATION_STYLE_ASSIGNMENT((#196));
#90=ADVANCED_FACE('',(#197,#198),#199,.T.);
#91=PRESENTATION_STYLE_ASSIGNMENT((#200));
#92=EDGE_CURVE('',#148,#140,#201,.T.);
#93=PRESENTATION_STYLE_ASSIGNMENT((#202));
#94=ADVANCED_FACE('',(#203),#204,.T.);
#95=PRESENTATION_STYLE_ASSIGNMENT((#205));
#96=ADVANCED_FACE('',(#206),#207,.T.);
#97=PRESENTATION_STYLE_ASSIGNMENT((#208));
#98=VERTEX_POINT('',#209);
#99=PRESENTATION_STYLE_ASSIGNMENT((#210));
#100=EDGE_CURVE('',#108,#150,#211,.T.);
#101=PRESENTATION_STYLE_ASSIGNMENT((#212));
#102=EDGE_CURVE('',#72,#78,#213,.T.);
#103=PRESENTATION_STYLE_ASSIGNMENT((#214));
#104=EDGE_CURVE('',#132,#110,#215,.T.);
#105=PRESENTATION_STYLE_ASSIGNMENT((#216));
#106=EDGE_CURVE('',#126,#98,#217,.T.);
#107=PRESENTATION_STYLE_ASSIGNMENT((#218));
#108=VERTEX_POINT('',#219);
#109=PRESENTATION_STYLE_ASSIGNMENT((#220));
#110=VERTEX_POINT('',#221);
#111=PRESENTATION_STYLE_ASSIGNMENT((#222));
#112=EDGE_CURVE('',#128,#142,#223,.T.);
#113=PRESENTATION_STYLE_ASSIGNMENT((#224));
#114=EDGE_CURVE('',#110,#98,#225,.T.);
#115=PRESENTATION_STYLE_ASSIGNMENT((#226));
#116=EDGE_CURVE('',#126,#132,#227,.T.);
#117=PRESENTATION_STYLE_ASSIGNMENT((#228));
#118=EDGE_CURVE('',#132,#128,#229,.T.);
#119=PRESENTATION_STYLE_ASSIGNMENT((#230));
#120=ADVANCED_FACE('',(#231),#232,.T.);
#121=PRESENTATION_STYLE_ASSIGNMENT((#233));
#122=ADVANCED_FACE('',(#234),#235,.T.);
#123=PRESENTATION_STYLE_ASSIGNMENT((#236));
#124=EDGE_CURVE('',#148,#72,#237,.T.);
#125=PRESENTATION_STYLE_ASSIGNMENT((#238));
#126=VERTEX_POINT('',#239);
#127=PRESENTATION_STYLE_ASSIGNMENT((#240));
#128=VERTEX_POINT('',#241);
#129=PRESENTATION_STYLE_ASSIGNMENT((#242));
#130=EDGE_CURVE('',#142,#128,#243,.T.);
#131=PRESENTATION_STYLE_ASSIGNMENT((#244));
#132=VERTEX_POINT('',#245);
#133=PRESENTATION_STYLE_ASSIGNMENT((#246));
#134=EDGE_CURVE('',#142,#110,#247,.T.);
#135=PRESENTATION_STYLE_ASSIGNMENT((#248));
#136=ADVANCED_FACE('',(#249),#250,.T.);
#137=PRESENTATION_STYLE_ASSIGNMENT((#251));
#138=ADVANCED_FACE('',(#252),#253,.T.);
#139=PRESENTATION_STYLE_ASSIGNMENT((#254));
#140=VERTEX_POINT('',#255);
#141=PRESENTATION_STYLE_ASSIGNMENT((#256));
#142=VERTEX_POINT('',#257);
#143=PRESENTATION_STYLE_ASSIGNMENT((#258));
#144=ADVANCED_FACE('',(#259),#260,.T.);
#145=PRESENTATION_STYLE_ASSIGNMENT((#261));
#146=EDGE_CURVE('',#150,#78,#262,.T.);
#147=PRESENTATION_STYLE_ASSIGNMENT((#263));
#148=VERTEX_POINT('',#264);
#149=PRESENTATION_STYLE_ASSIGNMENT((#265));
#150=VERTEX_POINT('',#266);
#151=PRESENTATION_STYLE_ASSIGNMENT((#267));
#152=EDGE_CURVE('',#78,#140,#268,.T.);
#153=PRESENTATION_STYLE_ASSIGNMENT((#269));
#154=EDGE_CURVE('',#98,#126,#270,.T.);
#155=PRODUCT('1','1','PART-1-DESC',(#271));
#156=PRODUCT_DEFINITION('NONE','NONE',#272,#2);
#157=AXIS2_PLACEMENT_3D('',#273,#274,#275);
#160=LENGTH_MEASURE_WITH_UNIT(LENGTH_MEASURE(1.0),#276);
#163=DIMENSIONAL_EXPONENTS(1.0,0.0,0.0,0.0,0.0,0.0,0.0);
#165=DIMENSIONAL_EXPONENTS(0.0,0.0,0.0,0.0,0.0,0.0,0.0);
#171=CURVE_STYLE('',#277,POSITIVE_LENGTH_MEASURE(1.0E-006),#278);
#172=CIRCLE('',#279,10.0884572681199);
#173=CURVE_STYLE('',#280,POSITIVE_LENGTH_MEASURE(1.0E-006),#281);
#174=LINE('',#282,#283);
#175=POINT_STYLE(' ',#284,POSITIVE_LENGTH_MEASURE(1.0E-006),#285);
#176=CARTESIAN_POINT('',(6.92160002769807E-015,-12.5,16.0));
#177=CURVE_STYLE('',#286,POSITIVE_LENGTH_MEASURE(1.0E-006),#287);
#178=CIRCLE('',#288,6.0);
#179=SURFACE_STYLE_USAGE(.BOTH.,#289);
#180=FACE_OUTER_BOUND('',#290,.T.);
#181=PLANE('',#291);
#182=POINT_STYLE(' ',#292,POSITIVE_LENGTH_MEASURE(1.0E-006),#293);
#183=CARTESIAN_POINT('',(-2.64129118714539E-012,12.5,16.0));
#184=CURVE_STYLE('',#294,POSITIVE_LENGTH_MEASURE(1.0E-006),#295);
#185=CIRCLE('',#296,12.5);
#186=SURFACE_STYLE_USAGE(.BOTH.,#297);
#187=FACE_OUTER_BOUND('',#298,.T.);
#188=CYLINDRICAL_SURFACE('',#299,12.5);
#189=SURFACE_STYLE_USAGE(.BOTH.,#300);
#190=CLOSED_SHELL('',(#94,#88,#136,#96,#120,#138,#144,#90,#82,#122,#76));
#191=CURVE_STYLE('',#301,POSITIVE_LENGTH_MEASURE(1.0E-006),#302);
#192=CIRCLE('',#303,12.5);
#193=SURFACE_STYLE_USAGE(.BOTH.,#304);
#194=FACE_OUTER_BOUND('',#305,.T.);
#195=CYLINDRICAL_SURFACE('',#306,12.5);
#196=SURFACE_STYLE_USAGE(.BOTH.,#307);
#197=FACE_OUTER_BOUND('',#308,.T.);
#198=FACE_BOUND('',#309,.T.);
#199=PLANE('',#310);
#200=CURVE_STYLE('',#311,POSITIVE_LENGTH_MEASURE(1.0E-006),#312);
#201=CIRCLE('',#313,12.5);
#202=SURFACE_STYLE_USAGE(.BOTH.,#314);
#203=FACE_OUTER_BOUND('',#315,.T.);
#204=CONICAL_SURFACE('',#316,11.2942286340599,0.261799387799149);
#205=SURFACE_STYLE_USAGE(.BOTH.,#317);
#206=FACE_OUTER_BOUND('',#318,.T.);
#207=CONICAL_SURFACE('',#319,5.66506350946111,0.261799387799142);
#208=POINT_STYLE(' ',#320,POSITIVE_LENGTH_MEASURE(1.0E-006),#321);
#209=CARTESIAN_POINT('',(7.13590613961699E-015,-5.99999999999997,-2.8421709430404E-014));
#210=CURVE_STYLE('',#322,POSITIVE_LENGTH_MEASURE(1.0E-006),#323);
#211=CIRCLE('',#324,10.0884572681199);
#212=CURVE_STYLE('',#325,POSITIVE_LENGTH_MEASURE(1.0E-006),#326);
#213=CIRCLE('',#327,12.5);
#214=CURVE_STYLE('',#328,POSITIVE_LENGTH_MEASURE(1.0E-006),#329);
#215=CIRCLE('',#330,6.0);
#216=CURVE_STYLE('',#331,POSITIVE_LENGTH_MEASURE(1.0E-006),#332);
#217=CIRCLE('',#333,6.0);
#218=POINT_STYLE(' ',#334,POSITIVE_LENGTH_MEASURE(1.0E-006),#335);
#219=CARTESIAN_POINT('',(7.91565146971433E-015,-10.0884572681199,25.0));
#220=POINT_STYLE(' ',#336,POSITIVE_LENGTH_MEASURE(1.0E-006),#337);
#221=CARTESIAN_POINT('',(6.18683621540465E-015,-5.99999999999997,-15.5));
#222=CURVE_STYLE('',#338,POSITIVE_LENGTH_MEASURE(1.0E-006),#339);
#223=CIRCLE('',#340,5.33012701892221);
#224=CURVE_STYLE('',#341,POSITIVE_LENGTH_MEASURE(1.0E-006),#342);
#225=LINE('',#343,#344);
#226=CURVE_STYLE('',#345,POSITIVE_LENGTH_MEASURE(1.0E-006),#346);
#227=LINE('',#347,#348);
#228=CURVE_STYLE('',#349,POSITIVE_LENGTH_MEASURE(1.0E-006),#350);
#229=LINE('',#351,#352);
#230=SURFACE_STYLE_USAGE(.BOTH.,#353);
#231=FACE_OUTER_BOUND('',#354,.T.);
#232=PLANE('',#355);
#233=SURFACE_STYLE_USAGE(.BOTH.,#356);
#234=FACE_OUTER_BOUND('',#357,.T.);
#235=CONICAL_SURFACE('',#358,11.2942286340599,0.261799387799149);
#236=CURVE_STYLE('',#359,POSITIVE_LENGTH_MEASURE(1.0E-006),#360);
#237=LINE('',#361,#362);
#238=POINT_STYLE(' ',#363,POSITIVE_LENGTH_MEASURE(1.0E-006),#364);
#239=CARTESIAN_POINT('',(-1.26410909863719E-012,6.00000000000003,-2.8421709430404E-014));
#240=POINT_STYLE(' ',#365,POSITIVE_LENGTH_MEASURE(1.0E-006),#366);
#241=CARTESIAN_POINT('',(-1.12218031846551E-012,5.33012701892224,-18.0));
#242=CURVE_STYLE('',#367,POSITIVE_LENGTH_MEASURE(1.0E-006),#368);
#243=CIRCLE('',#369,5.33012701892221);
#244=POINT_STYLE(' ',#370,POSITIVE_LENGTH_MEASURE(1.0E-006),#371);
#245=CARTESIAN_POINT('',(-1.26410909863719E-012,6.00000000000003,-15.5));
#246=CURVE_STYLE('',#372,POSITIVE_LENGTH_MEASURE(1.0E-006),#373);
#247=LINE('',#374,#375);
#248=SURFACE_STYLE_USAGE(.BOTH.,#376);
#249=FACE_OUTER_BOUND('',#377,.T.);
#250=CYLINDRICAL_SURFACE('',#378,6.0);
#251=SURFACE_STYLE_USAGE(.BOTH.,#379);
#252=FACE_OUTER_BOUND('',#380,.T.);
#253=CONICAL_SURFACE('',#381,5.66506350946111,0.261799387799142);
#254=POINT_STYLE(' ',#382,POSITIVE_LENGTH_MEASURE(1.0E-006),#383);
#255=CARTESIAN_POINT('',(-2.64129118714539E-012,12.5,-2.8421709430404E-014));
#256=POINT_STYLE(' ',#384,POSITIVE_LENGTH_MEASURE(1.0E-006),#385);
#257=CARTESIAN_POINT('',(6.15681002750912E-015,-5.33012701892218,-18.0));
#258=SURFACE_STYLE_USAGE(.BOTH.,#386);
#259=FACE_OUTER_BOUND('',#387,.T.);
#260=CYLINDRICAL_SURFACE('',#388,6.0);
#261=CURVE_STYLE('',#389,POSITIVE_LENGTH_MEASURE(1.0E-006),#390);
#262=LINE('',#391,#392);
#263=POINT_STYLE(' ',#393,POSITIVE_LENGTH_MEASURE(1.0E-006),#394);
#264=CARTESIAN_POINT('',(5.94191494464017E-015,-12.5,-2.8421709430404E-014));
#265=POINT_STYLE(' ',#395,POSITIVE_LENGTH_MEASURE(1.0E-006),#396);
#266=CARTESIAN_POINT('',(-2.13034757852733E-012,10.0884572681199,25.0));
#267=CURVE_STYLE('',#397,POSITIVE_LENGTH_MEASURE(1.0E-006),#398);
#268=LINE('',#399,#400);
#269=CURVE_STYLE('',#401,POSITIVE_LENGTH_MEASURE(1.0E-006),#402);
#270=CIRCLE('',#403,6.0);
#271=PRODUCT_CONTEXT('',#54,'mechanical');
#272=PRODUCT_DEFINITION_FORMATION_WITH_SPECIFIED_SOURCE(' ','NONE',#155,.NOT_KNOWN.);
#273=CARTESIAN_POINT('',(0.0,0.0,0.0));
#274=DIRECTION('',(0.0,0.0,1.0));
#275=DIRECTION('',(1.0,0.0,0.0));
#276= (NAMED_UNIT(#163)LENGTH_UNIT()SI_UNIT(.MILLI.,.METRE.));
#277=DRAUGHTING_PRE_DEFINED_CURVE_FONT('continuous');
#278=COLOUR_RGB('',0.509803950786591,0.509803950786591,0.588235318660736);
#279=AXIS2_PLACEMENT_3D('',#405,#406,#407);
#280=DRAUGHTING_PRE_DEFINED_CURVE_FONT('continuous');
#281=COLOUR_RGB('',0.509803950786591,0.509803950786591,0.588235318660736);
#282=CARTESIAN_POINT('',(2.40009119511559E-012,-11.2942286340599,20.5));
#283=VECTOR('',#408,1.0);
#284=PRE_DEFINED_MARKER('');
#285=COLOUR_RGB('',0.509803950786591,0.509803950786591,0.588235318660736);
#286=DRAUGHTING_PRE_DEFINED_CURVE_FONT('continuous');
#287=COLOUR_RGB('',0.509803950786591,0.509803950786591,0.588235318660736);
#288=AXIS2_PLACEMENT_3D('',#409,#410,#411);
#289=SURFACE_SIDE_STYLE('',(#412));
#290=EDGE_LOOP('',(#413,#414));
#291=AXIS2_PLACEMENT_3D('',#415,#416,#417);
#292=PRE_DEFINED_MARKER('');
#293=COLOUR_RGB('',0.509803950786591,0.509803950786591,0.588235318660736);
#294=DRAUGHTING_PRE_DEFINED_CURVE_FONT('continuous');
#295=COLOUR_RGB('',0.509803950786591,0.509803950786591,0.588235318660736);
#296=AXIS2_PLACEMENT_3D('',#418,#419,#420);
#297=SURFACE_SIDE_STYLE('',(#421));
#298=EDGE_LOOP('',(#422,#423,#424,#425));
#299=AXIS2_PLACEMENT_3D('',#426,#427,#428);
#300=SURFACE_SIDE_STYLE('',(#429));
#301=DRAUGHTING_PRE_DEFINED_CURVE_FONT('continuous');
#302=COLOUR_RGB('',0.509803950786591,0.509803950786591,0.588235318660736);
#303=AXIS2_PLACEMENT_3D('',#430,#431,#432);
#304=SURFACE_SIDE_STYLE('',(#433));
#305=EDGE_LOOP('',(#434,#435,#436,#437));
#306=AXIS2_PLACEMENT_3D('',#438,#439,#440);
#307=SURFACE_SIDE_STYLE('',(#441));
#308=EDGE_LOOP('',(#442,#443));
#309=EDGE_LOOP('',(#444,#445));
#310=AXIS2_PLACEMENT_3D('',#446,#447,#448);
#311=DRAUGHTING_PRE_DEFINED_CURVE_FONT('continuous');
#312=COLOUR_RGB('',0.509803950786591,0.509803950786591,0.588235318660736);
#313=AXIS2_PLACEMENT_3D('',#449,#450,#451);
#314=SURFACE_SIDE_STYLE('',(#452));
#315=EDGE_LOOP('',(#453,#454,#455,#456));
#316=AXIS2_PLACEMENT_3D('',#457,#458,#459);
#317=SURFACE_SIDE_STYLE('',(#460));
#318=EDGE_LOOP('',(#461,#462,#463,#464));
#319=AXIS2_PLACEMENT_3D('',#465,#466,#467);
#320=PRE_DEFINED_MARKER('');
#321=COLOUR_RGB('',0.509803950786591,0.509803950786591,0.588235318660736);
#322=DRAUGHTING_PRE_DEFINED_CURVE_FONT('continuous');
#323=COLOUR_RGB('',0.509803950786591,0.509803950786591,0.588235318660736);
#324=AXIS2_PLACEMENT_3D('',#468,#469,#470);
#325=DRAUGHTING_PRE_DEFINED_CURVE_FONT('continuous');
#326=COLOUR_RGB('',0.509803950786591,0.509803950786591,0.588235318660736);
#327=AXIS2_PLACEMENT_3D('',#471,#472,#473);
#328=DRAUGHTING_PRE_DEFINED_CURVE_FONT('continuous');
#329=COLOUR_RGB('',0.509803950786591,0.509803950786591,0.588235318660736);
#330=AXIS2_PLACEMENT_3D('',#474,#475,#476);
#331=DRAUGHTING_PRE_DEFINED_CURVE_FONT('continuous');
#332=COLOUR_RGB('',0.509803950786591,0.509803950786591,0.588235318660736);
#333=AXIS2_PLACEMENT_3D('',#477,#478,#479);
#334=PRE_DEFINED_MARKER('');
#335=COLOUR_RGB('',0.509803950786591,0.509803950786591,0.588235318660736);
#336=PRE_DEFINED_MARKER('');
#337=COLOUR_RGB('',0.509803950786591,0.509803950786591,0.588235318660736);
#338=DRAUGHTING_PRE_DEFINED_CURVE_FONT('continuous');
#339=COLOUR_RGB('',0.509803950786591,0.509803950786591,0.588235318660736);
#340=AXIS2_PLACEMENT_3D('',#480,#481,#482);
#341=DRAUGHTING_PRE_DEFINED_CURVE_FONT('continuous');
#342=COLOUR_RGB('',0.509803950786591,0.509803950786591,0.588235318660736);
#343=CARTESIAN_POINT('',(1.27838091091642E-012,-5.99999999999997,-7.75000000000003));
#344=VECTOR('',#483,1.0);
#345=DRAUGHTING_PRE_DEFINED_CURVE_FONT('continuous');
#346=COLOUR_RGB('',0.509803950786591,0.509803950786591,0.588235318660736);
#347=CARTESIAN_POINT('',(-1.26410909863719E-012,6.00000000000003,-7.75000000000003));
#348=VECTOR('',#484,1.0);
#349=DRAUGHTING_PRE_DEFINED_CURVE_FONT('continuous');
#350=COLOUR_RGB('',0.509803950786591,0.509803950786591,0.588235318660736);
#351=CARTESIAN_POINT('',(-1.19314470855135E-012,5.66506350946113,-16.75));
#352=VECTOR('',#485,1.0);
#353=SURFACE_SIDE_STYLE('',(#486));
#354=EDGE_LOOP('',(#487,#488));
#355=AXIS2_PLACEMENT_3D('',#489,#490,#491);
#356=SURFACE_SIDE_STYLE('',(#492));
#357=EDGE_LOOP('',(#493,#494,#495,#496));
#358=AXIS2_PLACEMENT_3D('',#497,#498,#499);
#359=DRAUGHTING_PRE_DEFINED_CURVE_FONT('continuous');
#360=COLOUR_RGB('',0.509803950786591,0.509803950786591,0.588235318660736);
#361=CARTESIAN_POINT('',(2.65556299942462E-012,-12.5,7.99999999999997));
#362=VECTOR('',#500,1.0);
#363=PRE_DEFINED_MARKER('');
#364=COLOUR_RGB('',0.509803950786591,0.509803950786591,0.588235318660736);
#365=PRE_DEFINED_MARKER('');
#366=COLOUR_RGB('',0.509803950786591,0.509803950786591,0.588235318660736);
#367=DRAUGHTING_PRE_DEFINED_CURVE_FONT('continuous');
#368=COLOUR_RGB('',0.509803950786591,0.509803950786591,0.588235318660736);
#369=AXIS2_PLACEMENT_3D('',#501,#502,#503);
#370=PRE_DEFINED_MARKER('');
#371=COLOUR_RGB('',0.509803950786591,0.509803950786591,0.588235318660736);
#372=DRAUGHTING_PRE_DEFINED_CURVE_FONT('continuous');
#373=COLOUR_RGB('',0.509803950786591,0.509803950786591,0.588235318660736);
#374=CARTESIAN_POINT('',(1.20741652083058E-012,-5.66506350946108,-16.75));
#375=VECTOR('',#504,1.0);
#376=SURFACE_SIDE_STYLE('',(#505));
#377=EDGE_LOOP('',(#506,#507,#508,#509));
#378=AXIS2_PLACEMENT_3D('',#510,#511,#512);
#379=SURFACE_SIDE_STYLE('',(#513));
#380=EDGE_LOOP('',(#514,#515,#516,#517));
#381=AXIS2_PLACEMENT_3D('',#518,#519,#520);
#382=PRE_DEFINED_MARKER('');
#383=COLOUR_RGB('',0.509803950786591,0.509803950786591,0.588235318660736);
#384=PRE_DEFINED_MARKER('');
#385=COLOUR_RGB('',0.509803950786591,0.509803950786591,0.588235318660736);
#386=SURFACE_SIDE_STYLE('',(#521));
#387=EDGE_LOOP('',(#522,#523,#524,#525));
#388=AXIS2_PLACEMENT_3D('',#526,#527,#528);
#389=DRAUGHTING_PRE_DEFINED_CURVE_FONT('continuous');
#390=COLOUR_RGB('',0.509803950786591,0.509803950786591,0.588235318660736);
#391=CARTESIAN_POINT('',(-2.38581938283636E-012,11.29422863406,20.5));
#392=VECTOR('',#529,1.0);
#393=PRE_DEFINED_MARKER('');
#394=COLOUR_RGB('',0.509803950786591,0.509803950786591,0.588235318660736);
#395=PRE_DEFINED_MARKER('');
#396=COLOUR_RGB('',0.509803950786591,0.509803950786591,0.588235318660736);
#397=DRAUGHTING_PRE_DEFINED_CURVE_FONT('continuous');
#398=COLOUR_RGB('',0.509803950786591,0.509803950786591,0.588235318660736);
#399=CARTESIAN_POINT('',(-2.64129118714539E-012,12.5,7.99999999999997));
#400=VECTOR('',#530,1.0);
#401=DRAUGHTING_PRE_DEFINED_CURVE_FONT('continuous');
#402=COLOUR_RGB('',0.509803950786591,0.509803950786591,0.588235318660736);
#403=AXIS2_PLACEMENT_3D('',#531,#532,#533);
#405=CARTESIAN_POINT('',(7.13590613961699E-015,2.8421709430404E-014,25.0));
#406=DIRECTION('',(0.0,0.0,1.0));
#407=DIRECTION('',(2.11996628098183E-013,-1.0,0.0));
#408=DIRECTION('',(-5.48370697046136E-014,0.258819045102521,0.965925826289068));
#409=CARTESIAN_POINT('',(7.13590613961699E-015,2.8421709430404E-014,-15.5));
#410=DIRECTION('',(0.0,0.0,1.0));
#411=DIRECTION('',(2.11996628098183E-013,-1.0,0.0));
#412=SURFACE_STYLE_FILL_AREA(#534);
#413=ORIENTED_EDGE('',*,*,#100,.T.);
#414=ORIENTED_EDGE('',*,*,#68,.T.);
#415=CARTESIAN_POINT('',(8.84223063502471E-015,-5.04422863405992,25.0));
#416=DIRECTION('',(0.0,0.0,1.0));
#417=DIRECTION('',(-1.83690953073357E-016,-1.0,0.0));
#418=CARTESIAN_POINT('',(7.13590613961699E-015,2.8421709430404E-014,16.0));
#419=DIRECTION('',(0.0,0.0,1.0));
#420=DIRECTION('',(2.11996628098183E-013,-1.0,0.0));
#421=SURFACE_STYLE_FILL_AREA(#535);
#422=ORIENTED_EDGE('',*,*,#124,.T.);
#423=ORIENTED_EDGE('',*,*,#80,.F.);
#424=ORIENTED_EDGE('',*,*,#152,.T.);
#425=ORIENTED_EDGE('',*,*,#86,.T.);
#426=CARTESIAN_POINT('',(7.13590613961699E-015,2.8421709430404E-014,7.99999999999997));
#427=DIRECTION('',(-0.0,-0.0,-1.0));
#428=DIRECTION('',(2.11996628098183E-013,-1.0,0.0));
#429=SURFACE_STYLE_FILL_AREA(#536);
#430=CARTESIAN_POINT('',(7.13590613961699E-015,2.8421709430404E-014,-2.8421709430404E-014));
#431=DIRECTION('',(0.0,0.0,1.0));
#432=DIRECTION('',(2.11996628098183E-013,-1.0,0.0));
#433=SURFACE_STYLE_FILL_AREA(#537);
#434=ORIENTED_EDGE('',*,*,#124,.F.);
#435=ORIENTED_EDGE('',*,*,#92,.T.);
#436=ORIENTED_EDGE('',*,*,#152,.F.);
#437=ORIENTED_EDGE('',*,*,#102,.F.);
#438=CARTESIAN_POINT('',(7.13590613961699E-015,2.8421709430404E-014,7.99999999999997));
#439=DIRECTION('',(-0.0,-0.0,-1.0));
#440=DIRECTION('',(2.11996628098183E-013,-1.0,0.0));
#441=SURFACE_STYLE_FILL_AREA(#538);
#442=ORIENTED_EDGE('',*,*,#92,.F.);
#443=ORIENTED_EDGE('',*,*,#86,.F.);
#444=ORIENTED_EDGE('',*,*,#154,.T.);
#445=ORIENTED_EDGE('',*,*,#106,.T.);
#446=CARTESIAN_POINT('',(6.53891054212858E-015,-9.24999999999997,-2.8421709430404E-014));
#447=DIRECTION('',(0.0,0.0,-1.0));
#448=DIRECTION('',(1.83690953073357E-016,1.0,0.0));
#449=CARTESIAN_POINT('',(7.13590613961699E-015,2.8421709430404E-014,-2.8421709430404E-014));
#450=DIRECTION('',(0.0,0.0,1.0));
#451=DIRECTION('',(2.11996628098183E-013,-1.0,0.0));
#452=SURFACE_STYLE_FILL_AREA(#539);
#453=ORIENTED_EDGE('',*,*,#70,.F.);
#454=ORIENTED_EDGE('',*,*,#102,.T.);
#455=ORIENTED_EDGE('',*,*,#146,.F.);
#456=ORIENTED_EDGE('',*,*,#100,.F.);
#457=CARTESIAN_POINT('',(7.13590613961699E-015,2.8421709430404E-014,20.5));
#458=DIRECTION('',(-0.0,-0.0,-1.0));
#459=DIRECTION('',(2.11996628098183E-013,-1.0,0.0));
#460=SURFACE_STYLE_FILL_AREA(#540);
#461=ORIENTED_EDGE('',*,*,#134,.F.);
#462=ORIENTED_EDGE('',*,*,#130,.T.);
#463=ORIENTED_EDGE('',*,*,#118,.F.);
#464=ORIENTED_EDGE('',*,*,#74,.F.);
#465=CARTESIAN_POINT('',(7.13590613961699E-015,2.8421709430404E-014,-16.75));
#466=DIRECTION('',(-0.0,0.0,1.0));
#467=DIRECTION('',(2.11996628098183E-013,-1.0,0.0));
#468=CARTESIAN_POINT('',(7.13590613961699E-015,2.8421709430404E-014,25.0));
#469=DIRECTION('',(0.0,0.0,1.0));
#470=DIRECTION('',(2.11996628098183E-013,-1.0,0.0));
#471=CARTESIAN_POINT('',(7.13590613961699E-015,2.8421709430404E-014,16.0));
#472=DIRECTION('',(0.0,0.0,1.0));
#473=DIRECTION('',(2.11996628098183E-013,-1.0,0.0));
#474=CARTESIAN_POINT('',(7.13590613961699E-015,2.8421709430404E-014,-15.5));
#475=DIRECTION('',(0.0,0.0,1.0));
#476=DIRECTION('',(2.11996628098183E-013,-1.0,0.0));
#477=CARTESIAN_POINT('',(7.13590613961699E-015,2.8421709430404E-014,-2.8421709430404E-014));
#478=DIRECTION('',(0.0,0.0,1.0));
#479=DIRECTION('',(2.11996628098183E-013,-1.0,0.0));
#480=CARTESIAN_POINT('',(7.13590613961699E-015,2.8421709430404E-014,-18.0));
#481=DIRECTION('',(0.0,0.0,1.0));
#482=DIRECTION('',(2.11996628098183E-013,-1.0,0.0));
#483=DIRECTION('',(0.0,0.0,1.0));
#484=DIRECTION('',(-0.0,-0.0,-1.0));
#485=DIRECTION('',(5.48370697046121E-014,-0.258819045102514,-0.96592582628907));
#486=SURFACE_STYLE_FILL_AREA(#541);
#487=ORIENTED_EDGE('',*,*,#130,.F.);
#488=ORIENTED_EDGE('',*,*,#112,.F.);
#489=CARTESIAN_POINT('',(6.64635808356305E-015,-2.66506350946108,-18.0));
#490=DIRECTION('',(0.0,0.0,-1.0));
#491=DIRECTION('',(1.83690953073357E-016,1.0,0.0));
#492=SURFACE_STYLE_FILL_AREA(#542);
#493=ORIENTED_EDGE('',*,*,#70,.T.);
#494=ORIENTED_EDGE('',*,*,#68,.F.);
#495=ORIENTED_EDGE('',*,*,#146,.T.);
#496=ORIENTED_EDGE('',*,*,#80,.T.);
#497=CARTESIAN_POINT('',(7.13590613961699E-015,2.8421709430404E-014,20.5));
#498=DIRECTION('',(-0.0,-0.0,-1.0));
#499=DIRECTION('',(2.11996628098183E-013,-1.0,0.0));
#500=DIRECTION('',(0.0,0.0,1.0));
#501=CARTESIAN_POINT('',(7.13590613961699E-015,2.8421709430404E-014,-18.0));
#502=DIRECTION('',(0.0,0.0,1.0));
#503=DIRECTION('',(2.11996628098183E-013,-1.0,0.0));
#504=DIRECTION('',(5.48370697046121E-014,-0.258819045102514,0.96592582628907));
#505=SURFACE_STYLE_FILL_AREA(#543);
#506=ORIENTED_EDGE('',*,*,#114,.F.);
#507=ORIENTED_EDGE('',*,*,#74,.T.);
#508=ORIENTED_EDGE('',*,*,#116,.F.);
#509=ORIENTED_EDGE('',*,*,#154,.F.);
#510=CARTESIAN_POINT('',(7.13590613961699E-015,2.8421709430404E-014,-7.75000000000003));
#511=DIRECTION('',(-0.0,-0.0,-1.0));
#512=DIRECTION('',(2.11996628098183E-013,-1.0,0.0));
#513=SURFACE_STYLE_FILL_AREA(#544);
#514=ORIENTED_EDGE('',*,*,#134,.T.);
#515=ORIENTED_EDGE('',*,*,#104,.F.);
#516=ORIENTED_EDGE('',*,*,#118,.T.);
#517=ORIENTED_EDGE('',*,*,#112,.T.);
#518=CARTESIAN_POINT('',(7.13590613961699E-015,2.8421709430404E-014,-16.75));
#519=DIRECTION('',(-0.0,0.0,1.0));
#520=DIRECTION('',(2.11996628098183E-013,-1.0,0.0));
#521=SURFACE_STYLE_FILL_AREA(#545);
#522=ORIENTED_EDGE('',*,*,#114,.T.);
#523=ORIENTED_EDGE('',*,*,#106,.F.);
#524=ORIENTED_EDGE('',*,*,#116,.T.);
#525=ORIENTED_EDGE('',*,*,#104,.T.);
#526=CARTESIAN_POINT('',(7.13590613961699E-015,2.8421709430404E-014,-7.75000000000003));
#527=DIRECTION('',(-0.0,-0.0,-1.0));
#528=DIRECTION('',(2.11996628098183E-013,-1.0,0.0));
#529=DIRECTION('',(-5.48370697046136E-014,0.258819045102521,-0.965925826289068));
#530=DIRECTION('',(-0.0,-0.0,-1.0));
#531=CARTESIAN_POINT('',(7.13590613961699E-015,2.8421709430404E-014,-2.8421709430404E-014));
#532=DIRECTION('',(0.0,0.0,1.0));
#533=DIRECTION('',(2.11996628098183E-013,-1.0,0.0));
#534=FILL_AREA_STYLE('',(#546));
#535=FILL_AREA_STYLE('',(#547));
#536=FILL_AREA_STYLE('',(#548));
#537=FILL_AREA_STYLE('',(#549));
#538=FILL_AREA_STYLE('',(#550));
#539=FILL_AREA_STYLE('',(#551));
#540=FILL_AREA_STYLE('',(#552));
#541=FILL_AREA_STYLE('',(#553));
#542=FILL_AREA_STYLE('',(#554));
#543=FILL_AREA_STYLE('',(#555));
#544=FILL_AREA_STYLE('',(#556));
#545=FILL_AREA_STYLE('',(#557));
#546=FILL_AREA_STYLE_COLOUR('',#558);
#547=FILL_AREA_STYLE_COLOUR('',#559);
#548=FILL_AREA_STYLE_COLOUR('',#560);
#549=FILL_AREA_STYLE_COLOUR('',#561);
#550=FILL_AREA_STYLE_COLOUR('',#562);
#551=FILL_AREA_STYLE_COLOUR('',#563);
#552=FILL_AREA_STYLE_COLOUR('',#564);
#553=FILL_AREA_STYLE_COLOUR('',#565);
#554=FILL_AREA_STYLE_COLOUR('',#566);
#555=FILL_AREA_STYLE_COLOUR('',#567);
#556=FILL_AREA_STYLE_COLOUR('',#568);
#557=FILL_AREA_STYLE_COLOUR('',#569);
#558=COLOUR_RGB('',0.509803950786591,0.509803950786591,0.588235318660736);
#559=COLOUR_RGB('',0.509803950786591,0.509803950786591,0.588235318660736);
#560=COLOUR_RGB('',0.509803950786591,0.509803950786591,0.588235318660736);
#561=COLOUR_RGB('',0.509803950786591,0.509803950786591,0.588235318660736);
#562=COLOUR_RGB('',0.509803950786591,0.509803950786591,0.588235318660736);
#563=COLOUR_RGB('',0.509803950786591,0.509803950786591,0.588235318660736);
#564=COLOUR_RGB('',0.509803950786591,0.509803950786591,0.588235318660736);
#565=COLOUR_RGB('',0.509803950786591,0.509803950786591,0.588235318660736);
#566=COLOUR_RGB('',0.509803950786591,0.509803950786591,0.588235318660736);
#567=COLOUR_RGB('',0.509803950786591,0.509803950786591,0.588235318660736);
#568=COLOUR_RGB('',0.509803950786591,0.509803950786591,0.588235318660736);
#569=COLOUR_RGB('',0.509803950786591,0.509803950786591,0.588235318660736);
ENDSEC;
END-ISO-10303-21;
