ISO-10303-21;
HEADER;
FILE_DESCRIPTION(('STEP AP214'),'1');
FILE_NAME(' ','  ',('TraceParts'),('TraceParts S.A.'),'XStep 1.0',' ',' ');
FILE_SCHEMA(('automotive_design'));
ENDSEC;
DATA;
#1=MECHANICAL_DESIGN_GEOMETRIC_PRESENTATION_REPRESENTATION(' ',(#10,#11,#12,#13,#14,#15,#16,#17,#18,#19,#20,#21,#22,#23,#24,#25,#26,#27,#28,#29,#30,#31,#32,#33,#34,#35,#36,#37,#38,#39,#40,#41,#42,#43,#44,#45,#46,#47,#48,#49,#50,#51,#52,#53),#6);
#2=PRODUCT_DEFINITION_CONTEXT('',#54,'design');
#3=APPLICATION_PROTOCOL_DEFINITION('INTERNATIONAL STANDARD','automotive_design',1994,#54);
#4=PRODUCT_CATEGORY_RELATIONSHIP('NONE','NONE',#55,#56);
#5=SHAPE_DEFINITION_REPRESENTATION(#57,#58);
#6= (GEOMETRIC_REPRESENTATION_CONTEXT(3)GLOBAL_UNCERTAINTY_ASSIGNED_CONTEXT((#61))GLOBAL_UNIT_ASSIGNED_CONTEXT((#63,#64,#65))REPRESENTATION_CONTEXT('NONE','WORKSPACE'));
#10=STYLED_ITEM('',(#67),#68);
#11=STYLED_ITEM('',(#69),#70);
#12=STYLED_ITEM('',(#71),#72);
#13=STYLED_ITEM('',(#73),#74);
#14=STYLED_ITEM('',(#75),#76);
#15=STYLED_ITEM('',(#77),#78);
#16=STYLED_ITEM('',(#79),#80);
#17=STYLED_ITEM('',(#81),#82);
#18=STYLED_ITEM('',(#83),#84);
#19=STYLED_ITEM('',(#85),#86);
#20=STYLED_ITEM('',(#87),#88);
#21=STYLED_ITEM('',(#89),#90);
#22=STYLED_ITEM('',(#91),#92);
#23=STYLED_ITEM('',(#93),#94);
#24=STYLED_ITEM('',(#95),#96);
#25=STYLED_ITEM('',(#97),#98);
#26=STYLED_ITEM('',(#99),#100);
#27=STYLED_ITEM('',(#101),#102);
#28=STYLED_ITEM('',(#103),#104);
#29=STYLED_ITEM('',(#105),#106);
#30=STYLED_ITEM('',(#107),#108);
#31=STYLED_ITEM('',(#109),#110);
#32=STYLED_ITEM('',(#111),#112);
#33=STYLED_ITEM('',(#113),#114);
#34=STYLED_ITEM('',(#115),#116);
#35=STYLED_ITEM('',(#117),#118);
#36=STYLED_ITEM('',(#119),#120);
#37=STYLED_ITEM('',(#121),#122);
#38=STYLED_ITEM('',(#123),#124);
#39=STYLED_ITEM('',(#125),#126);
#40=STYLED_ITEM('',(#127),#128);
#41=STYLED_ITEM('',(#129),#130);
#42=STYLED_ITEM('',(#131),#132);
#43=STYLED_ITEM('',(#133),#134);
#44=STYLED_ITEM('',(#135),#136);
#45=STYLED_ITEM('',(#137),#138);
#46=STYLED_ITEM('',(#139),#140);
#47=STYLED_ITEM('',(#141),#142);
#48=STYLED_ITEM('',(#143),#144);
#49=STYLED_ITEM('',(#145),#146);
#50=STYLED_ITEM('',(#147),#148);
#51=STYLED_ITEM('',(#149),#150);
#52=STYLED_ITEM('',(#151),#152);
#53=STYLED_ITEM('',(#153),#154);
#54=APPLICATION_CONTEXT(' ');
#55=PRODUCT_CATEGORY('part','NONE');
#56=PRODUCT_RELATED_PRODUCT_CATEGORY('detail',' ',(#155));
#57=PRODUCT_DEFINITION_SHAPE('NONE','NONE',#156);
#58=ADVANCED_BREP_SHAPE_REPRESENTATION('1',(#82,#157),#6);
#61=UNCERTAINTY_MEASURE_WITH_UNIT(LENGTH_MEASURE(1.0E-006),#63,'','');
#63= (CONVERSION_BASED_UNIT('MILLIMETRE',#160)LENGTH_UNIT()NAMED_UNIT(#163));
#64= (NAMED_UNIT(#165)PLANE_ANGLE_UNIT()SI_UNIT($,.RADIAN.));
#65= (NAMED_UNIT(#165)SOLID_ANGLE_UNIT()SI_UNIT($,.STERADIAN.));
#67=PRESENTATION_STYLE_ASSIGNMENT((#171));
#68=EDGE_CURVE('',#146,#94,#172,.T.);
#69=PRESENTATION_STYLE_ASSIGNMENT((#173));
#70=EDGE_CURVE('',#92,#126,#174,.T.);
#71=PRESENTATION_STYLE_ASSIGNMENT((#175));
#72=ADVANCED_FACE('',(#176),#177,.T.);
#73=PRESENTATION_STYLE_ASSIGNMENT((#178));
#74=EDGE_CURVE('',#126,#92,#179,.T.);
#75=PRESENTATION_STYLE_ASSIGNMENT((#180));
#76=EDGE_CURVE('',#80,#124,#181,.T.);
#77=PRESENTATION_STYLE_ASSIGNMENT((#182));
#78=EDGE_CURVE('',#124,#80,#183,.T.);
#79=PRESENTATION_STYLE_ASSIGNMENT((#184));
#80=VERTEX_POINT('',#185);
#81=PRESENTATION_STYLE_ASSIGNMENT((#186));
#82=MANIFOLD_SOLID_BREP('1',#187);
#83=PRESENTATION_STYLE_ASSIGNMENT((#188));
#84=EDGE_CURVE('',#80,#126,#189,.T.);
#85=PRESENTATION_STYLE_ASSIGNMENT((#190));
#86=EDGE_CURVE('',#128,#122,#191,.T.);
#87=PRESENTATION_STYLE_ASSIGNMENT((#192));
#88=ADVANCED_FACE('',(#193,#194),#195,.T.);
#89=PRESENTATION_STYLE_ASSIGNMENT((#196));
#90=EDGE_CURVE('',#94,#146,#197,.T.);
#91=PRESENTATION_STYLE_ASSIGNMENT((#198));
#92=VERTEX_POINT('',#199);
#93=PRESENTATION_STYLE_ASSIGNMENT((#200));
#94=VERTEX_POINT('',#201);
#95=PRESENTATION_STYLE_ASSIGNMENT((#202));
#96=EDGE_CURVE('',#120,#140,#203,.T.);
#97=PRESENTATION_STYLE_ASSIGNMENT((#204));
#98=ADVANCED_FACE('',(#205),#206,.T.);
#99=PRESENTATION_STYLE_ASSIGNMENT((#207));
#100=EDGE_CURVE('',#122,#80,#208,.T.);
#101=PRESENTATION_STYLE_ASSIGNMENT((#209));
#102=EDGE_CURVE('',#124,#128,#210,.T.);
#103=PRESENTATION_STYLE_ASSIGNMENT((#211));
#104=ADVANCED_FACE('',(#212),#213,.T.);
#105=PRESENTATION_STYLE_ASSIGNMENT((#214));
#106=ADVANCED_FACE('',(#215),#216,.T.);
#107=PRESENTATION_STYLE_ASSIGNMENT((#217));
#108=EDGE_CURVE('',#140,#120,#218,.T.);
#109=PRESENTATION_STYLE_ASSIGNMENT((#219));
#110=EDGE_CURVE('',#120,#130,#220,.T.);
#111=PRESENTATION_STYLE_ASSIGNMENT((#221));
#112=EDGE_CURVE('',#130,#142,#222,.T.);
#113=PRESENTATION_STYLE_ASSIGNMENT((#223));
#114=EDGE_CURVE('',#94,#120,#224,.T.);
#115=PRESENTATION_STYLE_ASSIGNMENT((#225));
#116=ADVANCED_FACE('',(#226),#227,.T.);
#117=PRESENTATION_STYLE_ASSIGNMENT((#228));
#118=EDGE_CURVE('',#142,#130,#229,.T.);
#119=PRESENTATION_STYLE_ASSIGNMENT((#230));
#120=VERTEX_POINT('',#231);
#121=PRESENTATION_STYLE_ASSIGNMENT((#232));
#122=VERTEX_POINT('',#233);
#123=PRESENTATION_STYLE_ASSIGNMENT((#234));
#124=VERTEX_POINT('',#235);
#125=PRESENTATION_STYLE_ASSIGNMENT((#236));
#126=VERTEX_POINT('',#237);
#127=PRESENTATION_STYLE_ASSIGNMENT((#238));
#128=VERTEX_POINT('',#239);
#129=PRESENTATION_STYLE_ASSIGNMENT((#240));
#130=VERTEX_POINT('',#241);
#131=PRESENTATION_STYLE_ASSIGNMENT((#242));
#132=EDGE_CURVE('',#140,#146,#243,.T.);
#133=PRESENTATION_STYLE_ASSIGNMENT((#244));
#134=ADVANCED_FACE('',(#245),#246,.T.);
#135=PRESENTATION_STYLE_ASSIGNMENT((#247));
#136=EDGE_CURVE('',#142,#140,#248,.T.);
#137=PRESENTATION_STYLE_ASSIGNMENT((#249));
#138=ADVANCED_FACE('',(#250),#251,.T.);
#139=PRESENTATION_STYLE_ASSIGNMENT((#252));
#140=VERTEX_POINT('',#253);
#141=PRESENTATION_STYLE_ASSIGNMENT((#254));
#142=VERTEX_POINT('',#255);
#143=PRESENTATION_STYLE_ASSIGNMENT((#256));
#144=EDGE_CURVE('',#92,#124,#257,.T.);
#145=PRESENTATION_STYLE_ASSIGNMENT((#258));
#146=VERTEX_POINT('',#259);
#147=PRESENTATION_STYLE_ASSIGNMENT((#260));
#148=ADVANCED_FACE('',(#261),#262,.T.);
#149=PRESENTATION_STYLE_ASSIGNMENT((#263));
#150=ADVANCED_FACE('',(#264),#265,.T.);
#151=PRESENTATION_STYLE_ASSIGNMENT((#266));
#152=EDGE_CURVE('',#122,#128,#267,.T.);
#153=PRESENTATION_STYLE_ASSIGNMENT((#268));
#154=ADVANCED_FACE('',(#269),#270,.T.);
#155=PRODUCT('1','1','PART-1-DESC',(#271));
#156=PRODUCT_DEFINITION('NONE','NONE',#272,#2);
#157=AXIS2_PLACEMENT_3D('',#273,#274,#275);
#160=LENGTH_MEASURE_WITH_UNIT(LENGTH_MEASURE(1.0),#276);
#163=DIMENSIONAL_EXPONENTS(1.0,0.0,0.0,0.0,0.0,0.0,0.0);
#165=DIMENSIONAL_EXPONENTS(0.0,0.0,0.0,0.0,0.0,0.0,0.0);
#171=CURVE_STYLE('',#277,POSITIVE_LENGTH_MEASURE(1.0E-006),#278);
#172=CIRCLE('',#279,6.0);
#173=CURVE_STYLE('',#280,POSITIVE_LENGTH_MEASURE(1.0E-006),#281);
#174=CIRCLE('',#282,10.0884572681199);
#175=SURFACE_STYLE_USAGE(.BOTH.,#283);
#176=FACE_OUTER_BOUND('',#284,.T.);
#177=CYLINDRICAL_SURFACE('',#285,6.0);
#178=CURVE_STYLE('',#286,POSITIVE_LENGTH_MEASURE(1.0E-006),#287);
#179=CIRCLE('',#288,10.0884572681199);
#180=CURVE_STYLE('',#289,POSITIVE_LENGTH_MEASURE(1.0E-006),#290);
#181=CIRCLE('',#291,12.5);
#182=CURVE_STYLE('',#292,POSITIVE_LENGTH_MEASURE(1.0E-006),#293);
#183=CIRCLE('',#294,12.5);
#184=POINT_STYLE(' ',#295,POSITIVE_LENGTH_MEASURE(1.0E-006),#296);
#185=CARTESIAN_POINT('',(6.30929685078688E-015,-12.5,5.99999999999997));
#186=SURFACE_STYLE_USAGE(.BOTH.,#297);
#187=CLOSED_SHELL('',(#154,#150,#72,#134,#104,#98,#138,#88,#116,#106,#148));
#188=CURVE_STYLE('',#298,POSITIVE_LENGTH_MEASURE(1.0E-006),#299);
#189=LINE('',#300,#301);
#190=CURVE_STYLE('',#302,POSITIVE_LENGTH_MEASURE(1.0E-006),#303);
#191=CIRCLE('',#304,12.5);
#192=SURFACE_STYLE_USAGE(.BOTH.,#305);
#193=FACE_OUTER_BOUND('',#306,.T.);
#194=FACE_BOUND('',#307,.T.);
#195=PLANE('',#308);
#196=CURVE_STYLE('',#309,POSITIVE_LENGTH_MEASURE(1.0E-006),#310);
#197=CIRCLE('',#311,6.0);
#198=POINT_STYLE(' ',#312,POSITIVE_LENGTH_MEASURE(1.0E-006),#313);
#199=CARTESIAN_POINT('',(-1.63254011762392E-012,10.0884572681199,15.0));
#200=POINT_STYLE(' ',#314,POSITIVE_LENGTH_MEASURE(1.0E-006),#315);
#201=CARTESIAN_POINT('',(-9.68043537170317E-013,6.00000000000003,-2.8421709430404E-014));
#202=CURVE_STYLE('',#316,POSITIVE_LENGTH_MEASURE(1.0E-006),#317);
#203=CIRCLE('',#318,6.0);
#204=SURFACE_STYLE_USAGE(.BOTH.,#319);
#205=FACE_OUTER_BOUND('',#320,.T.);
#206=CONICAL_SURFACE('',#321,5.66506350946111,0.261799387799142);
#207=CURVE_STYLE('',#322,POSITIVE_LENGTH_MEASURE(1.0E-006),#323);
#208=LINE('',#324,#325);
#209=CURVE_STYLE('',#326,POSITIVE_LENGTH_MEASURE(1.0E-006),#327);
#210=LINE('',#328,#329);
#211=SURFACE_STYLE_USAGE(.BOTH.,#330);
#212=FACE_OUTER_BOUND('',#331,.T.);
#213=PLANE('',#332);
#214=SURFACE_STYLE_USAGE(.BOTH.,#333);
#215=FACE_OUTER_BOUND('',#334,.T.);
#216=CONICAL_SURFACE('',#335,11.2942286340599,0.261799387799149);
#217=CURVE_STYLE('',#336,POSITIVE_LENGTH_MEASURE(1.0E-006),#337);
#218=CIRCLE('',#338,6.0);
#219=CURVE_STYLE('',#339,POSITIVE_LENGTH_MEASURE(1.0E-006),#340);
#220=LINE('',#341,#342);
#221=CURVE_STYLE('',#343,POSITIVE_LENGTH_MEASURE(1.0E-006),#344);
#222=CIRCLE('',#345,5.33012701892221);
#223=CURVE_STYLE('',#346,POSITIVE_LENGTH_MEASURE(1.0E-006),#347);
#224=LINE('',#348,#349);
#225=SURFACE_STYLE_USAGE(.BOTH.,#350);
#226=FACE_OUTER_BOUND('',#351,.T.);
#227=CYLINDRICAL_SURFACE('',#352,12.5);
#228=CURVE_STYLE('',#353,POSITIVE_LENGTH_MEASURE(1.0E-006),#354);
#229=CIRCLE('',#355,5.33012701892221);
#230=POINT_STYLE(' ',#356,POSITIVE_LENGTH_MEASURE(1.0E-006),#357);
#231=CARTESIAN_POINT('',(-9.68043537170317E-013,6.00000000000003,-15.5));
#232=POINT_STYLE(' ',#358,POSITIVE_LENGTH_MEASURE(1.0E-006),#359);
#233=CARTESIAN_POINT('',(5.94191494464017E-015,-12.5,-2.8421709430404E-014));
#234=POINT_STYLE(' ',#360,POSITIVE_LENGTH_MEASURE(1.0E-006),#361);
#235=CARTESIAN_POINT('',(-2.02448793408941E-012,12.5,5.99999999999997));
#236=POINT_STYLE(' ',#362,POSITIVE_LENGTH_MEASURE(1.0E-006),#363);
#237=CARTESIAN_POINT('',(7.30334829280314E-015,-10.0884572681199,15.0));
#238=POINT_STYLE(' ',#364,POSITIVE_LENGTH_MEASURE(1.0E-006),#365);
#239=CARTESIAN_POINT('',(-2.02448793408941E-012,12.5,-2.8421709430404E-014));
#240=POINT_STYLE(' ',#366,POSITIVE_LENGTH_MEASURE(1.0E-006),#367);
#241=CARTESIAN_POINT('',(-8.59169143707683E-013,5.33012701892224,-18.0));
#242=CURVE_STYLE('',#368,POSITIVE_LENGTH_MEASURE(1.0E-006),#369);
#243=LINE('',#370,#371);
#244=SURFACE_STYLE_USAGE(.BOTH.,#372);
#245=FACE_OUTER_BOUND('',#373,.T.);
#246=CONICAL_SURFACE('',#374,5.66506350946111,0.261799387799142);
#247=CURVE_STYLE('',#375,POSITIVE_LENGTH_MEASURE(1.0E-006),#376);
#248=LINE('',#377,#378);
#249=SURFACE_STYLE_USAGE(.BOTH.,#379);
#250=FACE_OUTER_BOUND('',#380,.T.);
#251=CYLINDRICAL_SURFACE('',#381,6.0);
#252=POINT_STYLE(' ',#382,POSITIVE_LENGTH_MEASURE(1.0E-006),#383);
#253=CARTESIAN_POINT('',(6.18683621540465E-015,-5.99999999999997,-15.5));
#254=POINT_STYLE(' ',#384,POSITIVE_LENGTH_MEASURE(1.0E-006),#385);
#255=CARTESIAN_POINT('',(6.15681002750912E-015,-5.33012701892218,-18.0));
#256=CURVE_STYLE('',#386,POSITIVE_LENGTH_MEASURE(1.0E-006),#387);
#257=LINE('',#388,#389);
#258=POINT_STYLE(' ',#390,POSITIVE_LENGTH_MEASURE(1.0E-006),#391);
#259=CARTESIAN_POINT('',(7.13590613961699E-015,-5.99999999999997,-2.8421709430404E-014));
#260=SURFACE_STYLE_USAGE(.BOTH.,#392);
#261=FACE_OUTER_BOUND('',#393,.T.);
#262=PLANE('',#394);
#263=SURFACE_STYLE_USAGE(.BOTH.,#395);
#264=FACE_OUTER_BOUND('',#396,.T.);
#265=CYLINDRICAL_SURFACE('',#397,12.5);
#266=CURVE_STYLE('',#398,POSITIVE_LENGTH_MEASURE(1.0E-006),#399);
#267=CIRCLE('',#400,12.5);
#268=SURFACE_STYLE_USAGE(.BOTH.,#401);
#269=FACE_OUTER_BOUND('',#402,.T.);
#270=CONICAL_SURFACE('',#403,11.2942286340599,0.261799387799149);
#271=PRODUCT_CONTEXT('',#54,'mechanical');
#272=PRODUCT_DEFINITION_FORMATION_WITH_SPECIFIED_SOURCE(' ','NONE',#155,.NOT_KNOWN.);
#273=CARTESIAN_POINT('',(0.0,0.0,0.0));
#274=DIRECTION('',(0.0,0.0,1.0));
#275=DIRECTION('',(1.0,0.0,0.0));
#276= (NAMED_UNIT(#163)LENGTH_UNIT()SI_UNIT(.MILLI.,.METRE.));
#277=DRAUGHTING_PRE_DEFINED_CURVE_FONT('continuous');
#278=COLOUR_RGB('',0.509803950786591,0.509803950786591,0.588235318660736);
#279=AXIS2_PLACEMENT_3D('',#405,#406,#407);
#280=DRAUGHTING_PRE_DEFINED_CURVE_FONT('continuous');
#281=COLOUR_RGB('',0.509803950786591,0.509803950786591,0.588235318660736);
#282=AXIS2_PLACEMENT_3D('',#408,#409,#410);
#283=SURFACE_SIDE_STYLE('',(#411));
#284=EDGE_LOOP('',(#412,#413,#414,#415));
#285=AXIS2_PLACEMENT_3D('',#416,#417,#418);
#286=DRAUGHTING_PRE_DEFINED_CURVE_FONT('continuous');
#287=COLOUR_RGB('',0.509803950786591,0.509803950786591,0.588235318660736);
#288=AXIS2_PLACEMENT_3D('',#419,#420,#421);
#289=DRAUGHTING_PRE_DEFINED_CURVE_FONT('continuous');
#290=COLOUR_RGB('',0.509803950786591,0.509803950786591,0.588235318660736);
#291=AXIS2_PLACEMENT_3D('',#422,#423,#424);
#292=DRAUGHTING_PRE_DEFINED_CURVE_FONT('continuous');
#293=COLOUR_RGB('',0.509803950786591,0.509803950786591,0.588235318660736);
#294=AXIS2_PLACEMENT_3D('',#425,#426,#427);
#295=PRE_DEFINED_MARKER('');
#296=COLOUR_RGB('',0.509803950786591,0.509803950786591,0.588235318660736);
#297=SURFACE_SIDE_STYLE('',(#428));
#298=DRAUGHTING_PRE_DEFINED_CURVE_FONT('continuous');
#299=COLOUR_RGB('',0.509803950786591,0.509803950786591,0.588235318660736);
#300=CARTESIAN_POINT('',(1.8427858381359E-012,-11.2942286340599,10.5));
#301=VECTOR('',#429,1.0);
#302=DRAUGHTING_PRE_DEFINED_CURVE_FONT('continuous');
#303=COLOUR_RGB('',0.509803950786591,0.509803950786591,0.588235318660736);
#304=AXIS2_PLACEMENT_3D('',#430,#431,#432);
#305=SURFACE_SIDE_STYLE('',(#433));
#306=EDGE_LOOP('',(#434,#435));
#307=EDGE_LOOP('',(#436,#437));
#308=AXIS2_PLACEMENT_3D('',#438,#439,#440);
#309=DRAUGHTING_PRE_DEFINED_CURVE_FONT('continuous');
#310=COLOUR_RGB('',0.509803950786591,0.509803950786591,0.588235318660736);
#311=AXIS2_PLACEMENT_3D('',#441,#442,#443);
#312=PRE_DEFINED_MARKER('');
#313=COLOUR_RGB('',0.509803950786591,0.509803950786591,0.588235318660736);
#314=PRE_DEFINED_MARKER('');
#315=COLOUR_RGB('',0.509803950786591,0.509803950786591,0.588235318660736);
#316=DRAUGHTING_PRE_DEFINED_CURVE_FONT('continuous');
#317=COLOUR_RGB('',0.509803950786591,0.509803950786591,0.588235318660736);
#318=AXIS2_PLACEMENT_3D('',#444,#445,#446);
#319=SURFACE_SIDE_STYLE('',(#447));
#320=EDGE_LOOP('',(#448,#449,#450,#451));
#321=AXIS2_PLACEMENT_3D('',#452,#453,#454);
#322=DRAUGHTING_PRE_DEFINED_CURVE_FONT('continuous');
#323=COLOUR_RGB('',0.509803950786591,0.509803950786591,0.588235318660736);
#324=CARTESIAN_POINT('',(2.03875974636865E-012,-12.5,2.99999999999997));
#325=VECTOR('',#455,1.0);
#326=DRAUGHTING_PRE_DEFINED_CURVE_FONT('continuous');
#327=COLOUR_RGB('',0.509803950786591,0.509803950786591,0.588235318660736);
#328=CARTESIAN_POINT('',(-2.02448793408941E-012,12.5,2.99999999999997));
#329=VECTOR('',#456,1.0);
#330=SURFACE_SIDE_STYLE('',(#457));
#331=EDGE_LOOP('',(#458,#459));
#332=AXIS2_PLACEMENT_3D('',#460,#461,#462);
#333=SURFACE_SIDE_STYLE('',(#463));
#334=EDGE_LOOP('',(#464,#465,#466,#467));
#335=AXIS2_PLACEMENT_3D('',#468,#469,#470);
#336=DRAUGHTING_PRE_DEFINED_CURVE_FONT('continuous');
#337=COLOUR_RGB('',0.509803950786591,0.509803950786591,0.588235318660736);
#338=AXIS2_PLACEMENT_3D('',#471,#472,#473);
#339=DRAUGHTING_PRE_DEFINED_CURVE_FONT('continuous');
#340=COLOUR_RGB('',0.509803950786591,0.509803950786591,0.588235318660736);
#341=CARTESIAN_POINT('',(-9.13606340439E-013,5.66506350946113,-16.75));
#342=VECTOR('',#474,1.0);
#343=DRAUGHTING_PRE_DEFINED_CURVE_FONT('continuous');
#344=COLOUR_RGB('',0.509803950786591,0.509803950786591,0.588235318660736);
#345=AXIS2_PLACEMENT_3D('',#475,#476,#477);
#346=DRAUGHTING_PRE_DEFINED_CURVE_FONT('continuous');
#347=COLOUR_RGB('',0.509803950786591,0.509803950786591,0.588235318660736);
#348=CARTESIAN_POINT('',(-9.68043537170317E-013,6.00000000000003,-7.75000000000003));
#349=VECTOR('',#478,1.0);
#350=SURFACE_SIDE_STYLE('',(#479));
#351=EDGE_LOOP('',(#480,#481,#482,#483));
#352=AXIS2_PLACEMENT_3D('',#484,#485,#486);
#353=DRAUGHTING_PRE_DEFINED_CURVE_FONT('continuous');
#354=COLOUR_RGB('',0.509803950786591,0.509803950786591,0.588235318660736);
#355=AXIS2_PLACEMENT_3D('',#487,#488,#489);
#356=PRE_DEFINED_MARKER('');
#357=COLOUR_RGB('',0.509803950786591,0.509803950786591,0.588235318660736);
#358=PRE_DEFINED_MARKER('');
#359=COLOUR_RGB('',0.509803950786591,0.509803950786591,0.588235318660736);
#360=PRE_DEFINED_MARKER('');
#361=COLOUR_RGB('',0.509803950786591,0.509803950786591,0.588235318660736);
#362=PRE_DEFINED_MARKER('');
#363=COLOUR_RGB('',0.509803950786591,0.509803950786591,0.588235318660736);
#364=PRE_DEFINED_MARKER('');
#365=COLOUR_RGB('',0.509803950786591,0.509803950786591,0.588235318660736);
#366=PRE_DEFINED_MARKER('');
#367=COLOUR_RGB('',0.509803950786591,0.509803950786591,0.588235318660736);
#368=DRAUGHTING_PRE_DEFINED_CURVE_FONT('continuous');
#369=COLOUR_RGB('',0.509803950786591,0.509803950786591,0.588235318660736);
#370=CARTESIAN_POINT('',(9.82315349449551E-013,-5.99999999999997,-7.75000000000003));
#371=VECTOR('',#490,1.0);
#372=SURFACE_SIDE_STYLE('',(#491));
#373=EDGE_LOOP('',(#492,#493,#494,#495));
#374=AXIS2_PLACEMENT_3D('',#496,#497,#498);
#375=DRAUGHTING_PRE_DEFINED_CURVE_FONT('continuous');
#376=COLOUR_RGB('',0.509803950786591,0.509803950786591,0.588235318660736);
#377=CARTESIAN_POINT('',(9.27878152718234E-013,-5.66506350946108,-16.75));
#378=VECTOR('',#499,1.0);
#379=SURFACE_SIDE_STYLE('',(#500));
#380=EDGE_LOOP('',(#501,#502,#503,#504));
#381=AXIS2_PLACEMENT_3D('',#505,#506,#507);
#382=PRE_DEFINED_MARKER('');
#383=COLOUR_RGB('',0.509803950786591,0.509803950786591,0.588235318660736);
#384=PRE_DEFINED_MARKER('');
#385=COLOUR_RGB('',0.509803950786591,0.509803950786591,0.588235318660736);
#386=DRAUGHTING_PRE_DEFINED_CURVE_FONT('continuous');
#387=COLOUR_RGB('',0.509803950786591,0.509803950786591,0.588235318660736);
#388=CARTESIAN_POINT('',(-1.82851402585667E-012,11.29422863406,10.5));
#389=VECTOR('',#508,1.0);
#390=PRE_DEFINED_MARKER('');
#391=COLOUR_RGB('',0.509803950786591,0.509803950786591,0.588235318660736);
#392=SURFACE_SIDE_STYLE('',(#509));
#393=EDGE_LOOP('',(#510,#511));
#394=AXIS2_PLACEMENT_3D('',#512,#513,#514);
#395=SURFACE_SIDE_STYLE('',(#515));
#396=EDGE_LOOP('',(#516,#517,#518,#519));
#397=AXIS2_PLACEMENT_3D('',#520,#521,#522);
#398=DRAUGHTING_PRE_DEFINED_CURVE_FONT('continuous');
#399=COLOUR_RGB('',0.509803950786591,0.509803950786591,0.588235318660736);
#400=AXIS2_PLACEMENT_3D('',#523,#524,#525);
#401=SURFACE_SIDE_STYLE('',(#526));
#402=EDGE_LOOP('',(#527,#528,#529,#530));
#403=AXIS2_PLACEMENT_3D('',#531,#532,#533);
#405=CARTESIAN_POINT('',(7.13590613961699E-015,2.8421709430404E-014,-2.8421709430404E-014));
#406=DIRECTION('',(0.0,0.0,1.0));
#407=DIRECTION('',(1.62652367853705E-013,-1.0,0.0));
#408=CARTESIAN_POINT('',(7.13590613961699E-015,2.8421709430404E-014,15.0));
#409=DIRECTION('',(0.0,0.0,1.0));
#410=DIRECTION('',(1.62652367853705E-013,-1.0,0.0));
#411=SURFACE_STYLE_FILL_AREA(#534);
#412=ORIENTED_EDGE('',*,*,#132,.F.);
#413=ORIENTED_EDGE('',*,*,#108,.T.);
#414=ORIENTED_EDGE('',*,*,#114,.F.);
#415=ORIENTED_EDGE('',*,*,#68,.F.);
#416=CARTESIAN_POINT('',(7.13590613961699E-015,2.8421709430404E-014,-7.75000000000003));
#417=DIRECTION('',(-0.0,-0.0,-1.0));
#418=DIRECTION('',(1.62652367853705E-013,-1.0,0.0));
#419=CARTESIAN_POINT('',(7.13590613961699E-015,2.8421709430404E-014,15.0));
#420=DIRECTION('',(0.0,0.0,1.0));
#421=DIRECTION('',(1.62652367853705E-013,-1.0,0.0));
#422=CARTESIAN_POINT('',(7.13590613961699E-015,2.8421709430404E-014,5.99999999999997));
#423=DIRECTION('',(0.0,0.0,1.0));
#424=DIRECTION('',(1.62652367853705E-013,-1.0,0.0));
#425=CARTESIAN_POINT('',(7.13590613961699E-015,2.8421709430404E-014,5.99999999999997));
#426=DIRECTION('',(0.0,0.0,1.0));
#427=DIRECTION('',(1.62652367853705E-013,-1.0,0.0));
#428=SURFACE_STYLE_FILL_AREA(#535);
#429=DIRECTION('',(-4.20658353868475E-014,0.258819045102521,0.965925826289068));
#430=CARTESIAN_POINT('',(7.13590613961699E-015,2.8421709430404E-014,-2.8421709430404E-014));
#431=DIRECTION('',(0.0,0.0,1.0));
#432=DIRECTION('',(1.62652367853705E-013,-1.0,0.0));
#433=SURFACE_STYLE_FILL_AREA(#536);
#434=ORIENTED_EDGE('',*,*,#152,.F.);
#435=ORIENTED_EDGE('',*,*,#86,.F.);
#436=ORIENTED_EDGE('',*,*,#68,.T.);
#437=ORIENTED_EDGE('',*,*,#90,.T.);
#438=CARTESIAN_POINT('',(6.53891054212858E-015,-9.24999999999997,-2.8421709430404E-014));
#439=DIRECTION('',(0.0,0.0,-1.0));
#440=DIRECTION('',(1.83690953073357E-016,1.0,0.0));
#441=CARTESIAN_POINT('',(7.13590613961699E-015,2.8421709430404E-014,-2.8421709430404E-014));
#442=DIRECTION('',(0.0,0.0,1.0));
#443=DIRECTION('',(1.62652367853705E-013,-1.0,0.0));
#444=CARTESIAN_POINT('',(7.13590613961699E-015,2.8421709430404E-014,-15.5));
#445=DIRECTION('',(0.0,0.0,1.0));
#446=DIRECTION('',(1.62652367853705E-013,-1.0,0.0));
#447=SURFACE_STYLE_FILL_AREA(#537);
#448=ORIENTED_EDGE('',*,*,#136,.T.);
#449=ORIENTED_EDGE('',*,*,#96,.F.);
#450=ORIENTED_EDGE('',*,*,#110,.T.);
#451=ORIENTED_EDGE('',*,*,#112,.T.);
#452=CARTESIAN_POINT('',(7.13590613961699E-015,2.8421709430404E-014,-16.75));
#453=DIRECTION('',(-0.0,0.0,1.0));
#454=DIRECTION('',(1.62652367853705E-013,-1.0,0.0));
#455=DIRECTION('',(0.0,0.0,1.0));
#456=DIRECTION('',(-0.0,-0.0,-1.0));
#457=SURFACE_STYLE_FILL_AREA(#538);
#458=ORIENTED_EDGE('',*,*,#118,.F.);
#459=ORIENTED_EDGE('',*,*,#112,.F.);
#460=CARTESIAN_POINT('',(6.64635808356305E-015,-2.66506350946108,-18.0));
#461=DIRECTION('',(0.0,0.0,-1.0));
#462=DIRECTION('',(1.83690953073357E-016,1.0,0.0));
#463=SURFACE_STYLE_FILL_AREA(#539);
#464=ORIENTED_EDGE('',*,*,#84,.T.);
#465=ORIENTED_EDGE('',*,*,#70,.F.);
#466=ORIENTED_EDGE('',*,*,#144,.T.);
#467=ORIENTED_EDGE('',*,*,#78,.T.);
#468=CARTESIAN_POINT('',(7.13590613961699E-015,2.8421709430404E-014,10.5));
#469=DIRECTION('',(-0.0,-0.0,-1.0));
#470=DIRECTION('',(1.62652367853705E-013,-1.0,0.0));
#471=CARTESIAN_POINT('',(7.13590613961699E-015,2.8421709430404E-014,-15.5));
#472=DIRECTION('',(0.0,0.0,1.0));
#473=DIRECTION('',(1.62652367853705E-013,-1.0,0.0));
#474=DIRECTION('',(4.20658353868464E-014,-0.258819045102514,-0.96592582628907));
#475=CARTESIAN_POINT('',(7.13590613961699E-015,2.8421709430404E-014,-18.0));
#476=DIRECTION('',(0.0,0.0,1.0));
#477=DIRECTION('',(1.62652367853705E-013,-1.0,0.0));
#478=DIRECTION('',(-0.0,-0.0,-1.0));
#479=SURFACE_STYLE_FILL_AREA(#540);
#480=ORIENTED_EDGE('',*,*,#100,.T.);
#481=ORIENTED_EDGE('',*,*,#78,.F.);
#482=ORIENTED_EDGE('',*,*,#102,.T.);
#483=ORIENTED_EDGE('',*,*,#86,.T.);
#484=CARTESIAN_POINT('',(7.13590613961699E-015,2.8421709430404E-014,2.99999999999997));
#485=DIRECTION('',(-0.0,-0.0,-1.0));
#486=DIRECTION('',(1.62652367853705E-013,-1.0,0.0));
#487=CARTESIAN_POINT('',(7.13590613961699E-015,2.8421709430404E-014,-18.0));
#488=DIRECTION('',(0.0,0.0,1.0));
#489=DIRECTION('',(1.62652367853705E-013,-1.0,0.0));
#490=DIRECTION('',(0.0,0.0,1.0));
#491=SURFACE_STYLE_FILL_AREA(#541);
#492=ORIENTED_EDGE('',*,*,#136,.F.);
#493=ORIENTED_EDGE('',*,*,#118,.T.);
#494=ORIENTED_EDGE('',*,*,#110,.F.);
#495=ORIENTED_EDGE('',*,*,#108,.F.);
#496=CARTESIAN_POINT('',(7.13590613961699E-015,2.8421709430404E-014,-16.75));
#497=DIRECTION('',(-0.0,0.0,1.0));
#498=DIRECTION('',(1.62652367853705E-013,-1.0,0.0));
#499=DIRECTION('',(4.20658353868464E-014,-0.258819045102514,0.96592582628907));
#500=SURFACE_STYLE_FILL_AREA(#542);
#501=ORIENTED_EDGE('',*,*,#132,.T.);
#502=ORIENTED_EDGE('',*,*,#90,.F.);
#503=ORIENTED_EDGE('',*,*,#114,.T.);
#504=ORIENTED_EDGE('',*,*,#96,.T.);
#505=CARTESIAN_POINT('',(7.13590613961699E-015,2.8421709430404E-014,-7.75000000000003));
#506=DIRECTION('',(-0.0,-0.0,-1.0));
#507=DIRECTION('',(1.62652367853705E-013,-1.0,0.0));
#508=DIRECTION('',(-4.20658353868475E-014,0.258819045102521,-0.965925826289068));
#509=SURFACE_STYLE_FILL_AREA(#543);
#510=ORIENTED_EDGE('',*,*,#74,.T.);
#511=ORIENTED_EDGE('',*,*,#70,.T.);
#512=CARTESIAN_POINT('',(8.22992745811352E-015,-5.04422863405992,15.0));
#513=DIRECTION('',(0.0,0.0,1.0));
#514=DIRECTION('',(-1.83690953073357E-016,-1.0,0.0));
#515=SURFACE_STYLE_FILL_AREA(#544);
#516=ORIENTED_EDGE('',*,*,#100,.F.);
#517=ORIENTED_EDGE('',*,*,#152,.T.);
#518=ORIENTED_EDGE('',*,*,#102,.F.);
#519=ORIENTED_EDGE('',*,*,#76,.F.);
#520=CARTESIAN_POINT('',(7.13590613961699E-015,2.8421709430404E-014,2.99999999999997));
#521=DIRECTION('',(-0.0,-0.0,-1.0));
#522=DIRECTION('',(1.62652367853705E-013,-1.0,0.0));
#523=CARTESIAN_POINT('',(7.13590613961699E-015,2.8421709430404E-014,-2.8421709430404E-014));
#524=DIRECTION('',(0.0,0.0,1.0));
#525=DIRECTION('',(1.62652367853705E-013,-1.0,0.0));
#526=SURFACE_STYLE_FILL_AREA(#545);
#527=ORIENTED_EDGE('',*,*,#84,.F.);
#528=ORIENTED_EDGE('',*,*,#76,.T.);
#529=ORIENTED_EDGE('',*,*,#144,.F.);
#530=ORIENTED_EDGE('',*,*,#74,.F.);
#531=CARTESIAN_POINT('',(7.13590613961699E-015,2.8421709430404E-014,10.5));
#532=DIRECTION('',(-0.0,-0.0,-1.0));
#533=DIRECTION('',(1.62652367853705E-013,-1.0,0.0));
#534=FILL_AREA_STYLE('',(#546));
#535=FILL_AREA_STYLE('',(#547));
#536=FILL_AREA_STYLE('',(#548));
#537=FILL_AREA_STYLE('',(#549));
#538=FILL_AREA_STYLE('',(#550));
#539=FILL_AREA_STYLE('',(#551));
#540=FILL_AREA_STYLE('',(#552));
#541=FILL_AREA_STYLE('',(#553));
#542=FILL_AREA_STYLE('',(#554));
#543=FILL_AREA_STYLE('',(#555));
#544=FILL_AREA_STYLE('',(#556));
#545=FILL_AREA_STYLE('',(#557));
#546=FILL_AREA_STYLE_COLOUR('',#558);
#547=FILL_AREA_STYLE_COLOUR('',#559);
#548=FILL_AREA_STYLE_COLOUR('',#560);
#549=FILL_AREA_STYLE_COLOUR('',#561);
#550=FILL_AREA_STYLE_COLOUR('',#562);
#551=FILL_AREA_STYLE_COLOUR('',#563);
#552=FILL_AREA_STYLE_COLOUR('',#564);
#553=FILL_AREA_STYLE_COLOUR('',#565);
#554=FILL_AREA_STYLE_COLOUR('',#566);
#555=FILL_AREA_STYLE_COLOUR('',#567);
#556=FILL_AREA_STYLE_COLOUR('',#568);
#557=FILL_AREA_STYLE_COLOUR('',#569);
#558=COLOUR_RGB('',0.509803950786591,0.509803950786591,0.588235318660736);
#559=COLOUR_RGB('',0.509803950786591,0.509803950786591,0.588235318660736);
#560=COLOUR_RGB('',0.509803950786591,0.509803950786591,0.588235318660736);
#561=COLOUR_RGB('',0.509803950786591,0.509803950786591,0.588235318660736);
#562=COLOUR_RGB('',0.509803950786591,0.509803950786591,0.588235318660736);
#563=COLOUR_RGB('',0.509803950786591,0.509803950786591,0.588235318660736);
#564=COLOUR_RGB('',0.509803950786591,0.509803950786591,0.588235318660736);
#565=COLOUR_RGB('',0.509803950786591,0.509803950786591,0.588235318660736);
#566=COLOUR_RGB('',0.509803950786591,0.509803950786591,0.588235318660736);
#567=COLOUR_RGB('',0.509803950786591,0.509803950786591,0.588235318660736);
#568=COLOUR_RGB('',0.509803950786591,0.509803950786591,0.588235318660736);
#569=COLOUR_RGB('',0.509803950786591,0.509803950786591,0.588235318660736);
ENDSEC;
END-ISO-10303-21;
