ISO-10303-21;
HEADER;
FILE_DESCRIPTION(('STEP AP214'),'1');
FILE_NAME(' ','  ',('TraceParts'),('TraceParts S.A.'),'XStep 1.0',' ',' ');
FILE_SCHEMA(('automotive_design'));
ENDSEC;
DATA;
#1=MECHANICAL_DESIGN_GEOMETRIC_PRESENTATION_REPRESENTATION(' ',(#10,#11,#12,#13,#14,#15,#16,#17,#18,#19,#20,#21,#22,#23,#24,#25,#26,#27,#28,#29,#30,#31,#32,#33,#34,#35,#36,#37,#38,#39,#40,#41,#42,#43,#44,#45,#46,#47,#48,#49,#50,#51,#52,#53),#6);
#2=PRODUCT_DEFINITION_CONTEXT('',#54,'design');
#3=APPLICATION_PROTOCOL_DEFINITION('INTERNATIONAL STANDARD','automotive_design',1994,#54);
#4=PRODUCT_CATEGORY_RELATIONSHIP('NONE','NONE',#55,#56);
#5=SHAPE_DEFINITION_REPRESENTATION(#57,#58);
#6= (GEOMETRIC_REPRESENTATION_CONTEXT(3)GLOBAL_UNCERTAINTY_ASSIGNED_CONTEXT((#61))GLOBAL_UNIT_ASSIGNED_CONTEXT((#63,#64,#65))REPRESENTATION_CONTEXT('NONE','WORKSPACE'));
#10=STYLED_ITEM('',(#67),#68);
#11=STYLED_ITEM('',(#69),#70);
#12=STYLED_ITEM('',(#71),#72);
#13=STYLED_ITEM('',(#73),#74);
#14=STYLED_ITEM('',(#75),#76);
#15=STYLED_ITEM('',(#77),#78);
#16=STYLED_ITEM('',(#79),#80);
#17=STYLED_ITEM('',(#81),#82);
#18=STYLED_ITEM('',(#83),#84);
#19=STYLED_ITEM('',(#85),#86);
#20=STYLED_ITEM('',(#87),#88);
#21=STYLED_ITEM('',(#89),#90);
#22=STYLED_ITEM('',(#91),#92);
#23=STYLED_ITEM('',(#93),#94);
#24=STYLED_ITEM('',(#95),#96);
#25=STYLED_ITEM('',(#97),#98);
#26=STYLED_ITEM('',(#99),#100);
#27=STYLED_ITEM('',(#101),#102);
#28=STYLED_ITEM('',(#103),#104);
#29=STYLED_ITEM('',(#105),#106);
#30=STYLED_ITEM('',(#107),#108);
#31=STYLED_ITEM('',(#109),#110);
#32=STYLED_ITEM('',(#111),#112);
#33=STYLED_ITEM('',(#113),#114);
#34=STYLED_ITEM('',(#115),#116);
#35=STYLED_ITEM('',(#117),#118);
#36=STYLED_ITEM('',(#119),#120);
#37=STYLED_ITEM('',(#121),#122);
#38=STYLED_ITEM('',(#123),#124);
#39=STYLED_ITEM('',(#125),#126);
#40=STYLED_ITEM('',(#127),#128);
#41=STYLED_ITEM('',(#129),#130);
#42=STYLED_ITEM('',(#131),#132);
#43=STYLED_ITEM('',(#133),#134);
#44=STYLED_ITEM('',(#135),#136);
#45=STYLED_ITEM('',(#137),#138);
#46=STYLED_ITEM('',(#139),#140);
#47=STYLED_ITEM('',(#141),#142);
#48=STYLED_ITEM('',(#143),#144);
#49=STYLED_ITEM('',(#145),#146);
#50=STYLED_ITEM('',(#147),#148);
#51=STYLED_ITEM('',(#149),#150);
#52=STYLED_ITEM('',(#151),#152);
#53=STYLED_ITEM('',(#153),#154);
#54=APPLICATION_CONTEXT(' ');
#55=PRODUCT_CATEGORY('part','NONE');
#56=PRODUCT_RELATED_PRODUCT_CATEGORY('detail',' ',(#155));
#57=PRODUCT_DEFINITION_SHAPE('NONE','NONE',#156);
#58=ADVANCED_BREP_SHAPE_REPRESENTATION('1',(#128,#157),#6);
#61=UNCERTAINTY_MEASURE_WITH_UNIT(LENGTH_MEASURE(1.0E-006),#63,'','');
#63= (CONVERSION_BASED_UNIT('MILLIMETRE',#160)LENGTH_UNIT()NAMED_UNIT(#163));
#64= (NAMED_UNIT(#165)PLANE_ANGLE_UNIT()SI_UNIT($,.RADIAN.));
#65= (NAMED_UNIT(#165)SOLID_ANGLE_UNIT()SI_UNIT($,.STERADIAN.));
#67=PRESENTATION_STYLE_ASSIGNMENT((#171));
#68=EDGE_CURVE('',#108,#130,#172,.T.);
#69=PRESENTATION_STYLE_ASSIGNMENT((#173));
#70=ADVANCED_FACE('',(#174),#175,.T.);
#71=PRESENTATION_STYLE_ASSIGNMENT((#176));
#72=EDGE_CURVE('',#100,#114,#177,.T.);
#73=PRESENTATION_STYLE_ASSIGNMENT((#178));
#74=EDGE_CURVE('',#76,#116,#179,.T.);
#75=PRESENTATION_STYLE_ASSIGNMENT((#180));
#76=VERTEX_POINT('',#181);
#77=PRESENTATION_STYLE_ASSIGNMENT((#182));
#78=EDGE_CURVE('',#130,#132,#183,.T.);
#79=PRESENTATION_STYLE_ASSIGNMENT((#184));
#80=ADVANCED_FACE('',(#185),#186,.T.);
#81=PRESENTATION_STYLE_ASSIGNMENT((#187));
#82=EDGE_CURVE('',#100,#116,#188,.T.);
#83=PRESENTATION_STYLE_ASSIGNMENT((#189));
#84=VERTEX_POINT('',#190);
#85=PRESENTATION_STYLE_ASSIGNMENT((#191));
#86=EDGE_CURVE('',#114,#100,#192,.T.);
#87=PRESENTATION_STYLE_ASSIGNMENT((#193));
#88=VERTEX_POINT('',#194);
#89=PRESENTATION_STYLE_ASSIGNMENT((#195));
#90=EDGE_CURVE('',#132,#84,#196,.T.);
#91=PRESENTATION_STYLE_ASSIGNMENT((#197));
#92=EDGE_CURVE('',#140,#130,#198,.T.);
#93=PRESENTATION_STYLE_ASSIGNMENT((#199));
#94=ADVANCED_FACE('',(#200),#201,.T.);
#95=PRESENTATION_STYLE_ASSIGNMENT((#202));
#96=ADVANCED_FACE('',(#203),#204,.T.);
#97=PRESENTATION_STYLE_ASSIGNMENT((#205));
#98=EDGE_CURVE('',#84,#132,#206,.T.);
#99=PRESENTATION_STYLE_ASSIGNMENT((#207));
#100=VERTEX_POINT('',#208);
#101=PRESENTATION_STYLE_ASSIGNMENT((#209));
#102=EDGE_CURVE('',#76,#114,#210,.T.);
#103=PRESENTATION_STYLE_ASSIGNMENT((#211));
#104=EDGE_CURVE('',#114,#152,#212,.T.);
#105=PRESENTATION_STYLE_ASSIGNMENT((#213));
#106=EDGE_CURVE('',#130,#140,#214,.T.);
#107=PRESENTATION_STYLE_ASSIGNMENT((#215));
#108=VERTEX_POINT('',#216);
#109=PRESENTATION_STYLE_ASSIGNMENT((#217));
#110=EDGE_CURVE('',#140,#88,#218,.T.);
#111=PRESENTATION_STYLE_ASSIGNMENT((#219));
#112=EDGE_CURVE('',#118,#100,#220,.T.);
#113=PRESENTATION_STYLE_ASSIGNMENT((#221));
#114=VERTEX_POINT('',#222);
#115=PRESENTATION_STYLE_ASSIGNMENT((#223));
#116=VERTEX_POINT('',#224);
#117=PRESENTATION_STYLE_ASSIGNMENT((#225));
#118=VERTEX_POINT('',#226);
#119=PRESENTATION_STYLE_ASSIGNMENT((#227));
#120=EDGE_CURVE('',#116,#76,#228,.T.);
#121=PRESENTATION_STYLE_ASSIGNMENT((#229));
#122=EDGE_CURVE('',#84,#140,#230,.T.);
#123=PRESENTATION_STYLE_ASSIGNMENT((#231));
#124=EDGE_CURVE('',#108,#88,#232,.T.);
#125=PRESENTATION_STYLE_ASSIGNMENT((#233));
#126=EDGE_CURVE('',#152,#118,#234,.T.);
#127=PRESENTATION_STYLE_ASSIGNMENT((#235));
#128=MANIFOLD_SOLID_BREP('1',#236);
#129=PRESENTATION_STYLE_ASSIGNMENT((#237));
#130=VERTEX_POINT('',#238);
#131=PRESENTATION_STYLE_ASSIGNMENT((#239));
#132=VERTEX_POINT('',#240);
#133=PRESENTATION_STYLE_ASSIGNMENT((#241));
#134=EDGE_CURVE('',#88,#108,#242,.T.);
#135=PRESENTATION_STYLE_ASSIGNMENT((#243));
#136=ADVANCED_FACE('',(#244),#245,.T.);
#137=PRESENTATION_STYLE_ASSIGNMENT((#246));
#138=ADVANCED_FACE('',(#247),#248,.T.);
#139=PRESENTATION_STYLE_ASSIGNMENT((#249));
#140=VERTEX_POINT('',#250);
#141=PRESENTATION_STYLE_ASSIGNMENT((#251));
#142=ADVANCED_FACE('',(#252),#253,.T.);
#143=PRESENTATION_STYLE_ASSIGNMENT((#254));
#144=ADVANCED_FACE('',(#255,#256),#257,.T.);
#145=PRESENTATION_STYLE_ASSIGNMENT((#258));
#146=ADVANCED_FACE('',(#259),#260,.T.);
#147=PRESENTATION_STYLE_ASSIGNMENT((#261));
#148=ADVANCED_FACE('',(#262),#263,.T.);
#149=PRESENTATION_STYLE_ASSIGNMENT((#264));
#150=EDGE_CURVE('',#118,#152,#265,.T.);
#151=PRESENTATION_STYLE_ASSIGNMENT((#266));
#152=VERTEX_POINT('',#267);
#153=PRESENTATION_STYLE_ASSIGNMENT((#268));
#154=ADVANCED_FACE('',(#269),#270,.T.);
#155=PRODUCT('1','1','PART-1-DESC',(#271));
#156=PRODUCT_DEFINITION('NONE','NONE',#272,#2);
#157=AXIS2_PLACEMENT_3D('',#273,#274,#275);
#160=LENGTH_MEASURE_WITH_UNIT(LENGTH_MEASURE(1.0),#276);
#163=DIMENSIONAL_EXPONENTS(1.0,0.0,0.0,0.0,0.0,0.0,0.0);
#165=DIMENSIONAL_EXPONENTS(0.0,0.0,0.0,0.0,0.0,0.0,0.0);
#171=CURVE_STYLE('',#277,POSITIVE_LENGTH_MEASURE(1.0E-006),#278);
#172=LINE('',#279,#280);
#173=SURFACE_STYLE_USAGE(.BOTH.,#281);
#174=FACE_OUTER_BOUND('',#282,.T.);
#175=CONICAL_SURFACE('',#283,4.7856406460551,0.261799387799153);
#176=CURVE_STYLE('',#284,POSITIVE_LENGTH_MEASURE(1.0E-006),#285);
#177=CIRCLE('',#286,5.0);
#178=CURVE_STYLE('',#287,POSITIVE_LENGTH_MEASURE(1.0E-006),#288);
#179=CIRCLE('',#289,4.5712812921102);
#180=POINT_STYLE(' ',#290,POSITIVE_LENGTH_MEASURE(1.0E-006),#291);
#181=CARTESIAN_POINT('',(-7.38175780186634E-013,4.57128129211023,5.99999999999997));
#182=CURVE_STYLE('',#292,POSITIVE_LENGTH_MEASURE(1.0E-006),#293);
#183=LINE('',#294,#295);
#184=SURFACE_STYLE_USAGE(.BOTH.,#296);
#185=FACE_OUTER_BOUND('',#297,.T.);
#186=CONICAL_SURFACE('',#298,4.7856406460551,0.261799387799153);
#187=CURVE_STYLE('',#299,POSITIVE_LENGTH_MEASURE(1.0E-006),#300);
#188=LINE('',#301,#302);
#189=POINT_STYLE(' ',#303,POSITIVE_LENGTH_MEASURE(1.0E-006),#304);
#190=CARTESIAN_POINT('',(-4.81990646373759E-013,3.00000000000003,-2.8421709430404E-014));
#191=CURVE_STYLE('',#305,POSITIVE_LENGTH_MEASURE(1.0E-006),#306);
#192=CIRCLE('',#307,5.0);
#193=POINT_STYLE(' ',#308,POSITIVE_LENGTH_MEASURE(1.0E-006),#309);
#194=CARTESIAN_POINT('',(-4.38303624792898E-013,2.7320508075689,-9.00000000000003));
#195=CURVE_STYLE('',#310,POSITIVE_LENGTH_MEASURE(1.0E-006),#311);
#196=CIRCLE('',#312,3.0);
#197=CURVE_STYLE('',#313,POSITIVE_LENGTH_MEASURE(1.0E-006),#314);
#198=CIRCLE('',#315,3.0);
#199=SURFACE_STYLE_USAGE(.BOTH.,#316);
#200=FACE_OUTER_BOUND('',#317,.T.);
#201=CONICAL_SURFACE('',#318,2.86602540378443,0.261799387799158);
#202=SURFACE_STYLE_USAGE(.BOTH.,#319);
#203=FACE_OUTER_BOUND('',#320,.T.);
#204=CYLINDRICAL_SURFACE('',#321,3.0);
#205=CURVE_STYLE('',#322,POSITIVE_LENGTH_MEASURE(1.0E-006),#323);
#206=CIRCLE('',#324,3.0);
#207=POINT_STYLE(' ',#325,POSITIVE_LENGTH_MEASURE(1.0E-006),#326);
#208=CARTESIAN_POINT('',(7.0379376313112E-015,-4.99999999999997,4.39999999999998));
#209=CURVE_STYLE('',#327,POSITIVE_LENGTH_MEASURE(1.0E-006),#328);
#210=LINE('',#329,#330);
#211=CURVE_STYLE('',#331,POSITIVE_LENGTH_MEASURE(1.0E-006),#332);
#212=LINE('',#333,#334);
#213=CURVE_STYLE('',#335,POSITIVE_LENGTH_MEASURE(1.0E-006),#336);
#214=CIRCLE('',#337,3.0);
#215=POINT_STYLE(' ',#338,POSITIVE_LENGTH_MEASURE(1.0E-006),#339);
#216=CARTESIAN_POINT('',(6.63405312292983E-015,-2.73205080756884,-9.00000000000003));
#217=CURVE_STYLE('',#340,POSITIVE_LENGTH_MEASURE(1.0E-006),#341);
#218=LINE('',#342,#343);
#219=CURVE_STYLE('',#344,POSITIVE_LENGTH_MEASURE(1.0E-006),#345);
#220=LINE('',#346,#347);
#221=POINT_STYLE(' ',#348,POSITIVE_LENGTH_MEASURE(1.0E-006),#349);
#222=CARTESIAN_POINT('',(-8.0807501471601E-013,5.00000000000003,4.39999999999998));
#223=POINT_STYLE(' ',#350,POSITIVE_LENGTH_MEASURE(1.0E-006),#351);
#224=CARTESIAN_POINT('',(7.21465788766964E-015,-4.57128129211017,5.99999999999997));
#225=POINT_STYLE(' ',#352,POSITIVE_LENGTH_MEASURE(1.0E-006),#353);
#226=CARTESIAN_POINT('',(6.76852423347028E-015,-4.99999999999997,-2.8421709430404E-014));
#227=CURVE_STYLE('',#354,POSITIVE_LENGTH_MEASURE(1.0E-006),#355);
#228=CIRCLE('',#356,4.5712812921102);
#229=CURVE_STYLE('',#357,POSITIVE_LENGTH_MEASURE(1.0E-006),#358);
#230=LINE('',#359,#360);
#231=CURVE_STYLE('',#361,POSITIVE_LENGTH_MEASURE(1.0E-006),#362);
#232=CIRCLE('',#363,2.73205080756887);
#233=CURVE_STYLE('',#364,POSITIVE_LENGTH_MEASURE(1.0E-006),#365);
#234=CIRCLE('',#366,5.0);
#235=SURFACE_STYLE_USAGE(.BOTH.,#367);
#236=CLOSED_SHELL('',(#70,#142,#136,#94,#138,#148,#96,#144,#146,#80,#154));
#237=POINT_STYLE(' ',#368,POSITIVE_LENGTH_MEASURE(1.0E-006),#369);
#238=CARTESIAN_POINT('',(6.64606359808804E-015,-2.99999999999997,-8.00000000000003));
#239=POINT_STYLE(' ',#370,POSITIVE_LENGTH_MEASURE(1.0E-006),#371);
#240=CARTESIAN_POINT('',(7.13590613961699E-015,-2.99999999999997,-2.8421709430404E-014));
#241=CURVE_STYLE('',#372,POSITIVE_LENGTH_MEASURE(1.0E-006),#373);
#242=CIRCLE('',#374,2.73205080756887);
#243=SURFACE_STYLE_USAGE(.BOTH.,#375);
#244=FACE_OUTER_BOUND('',#376,.T.);
#245=CYLINDRICAL_SURFACE('',#377,3.0);
#246=SURFACE_STYLE_USAGE(.BOTH.,#378);
#247=FACE_OUTER_BOUND('',#379,.T.);
#248=PLANE('',#380);
#249=POINT_STYLE(' ',#381,POSITIVE_LENGTH_MEASURE(1.0E-006),#382);
#250=CARTESIAN_POINT('',(-4.81990646373759E-013,3.00000000000003,-8.00000000000003));
#251=SURFACE_STYLE_USAGE(.BOTH.,#383);
#252=FACE_OUTER_BOUND('',#384,.T.);
#253=CYLINDRICAL_SURFACE('',#385,5.0);
#254=SURFACE_STYLE_USAGE(.BOTH.,#386);
#255=FACE_OUTER_BOUND('',#387,.T.);
#256=FACE_BOUND('',#388,.T.);
#257=PLANE('',#389);
#258=SURFACE_STYLE_USAGE(.BOTH.,#390);
#259=FACE_OUTER_BOUND('',#391,.T.);
#260=CYLINDRICAL_SURFACE('',#392,5.0);
#261=SURFACE_STYLE_USAGE(.BOTH.,#393);
#262=FACE_OUTER_BOUND('',#394,.T.);
#263=CONICAL_SURFACE('',#395,2.86602540378443,0.261799387799158);
#264=CURVE_STYLE('',#396,POSITIVE_LENGTH_MEASURE(1.0E-006),#397);
#265=CIRCLE('',#398,5.0);
#266=POINT_STYLE(' ',#399,POSITIVE_LENGTH_MEASURE(1.0E-006),#400);
#267=CARTESIAN_POINT('',(-8.0807501471601E-013,5.00000000000003,-2.8421709430404E-014));
#268=SURFACE_STYLE_USAGE(.BOTH.,#401);
#269=FACE_OUTER_BOUND('',#402,.T.);
#270=PLANE('',#403);
#271=PRODUCT_CONTEXT('',#54,'mechanical');
#272=PRODUCT_DEFINITION_FORMATION_WITH_SPECIFIED_SOURCE(' ','NONE',#155,.NOT_KNOWN.);
#273=CARTESIAN_POINT('',(0.0,0.0,0.0));
#274=DIRECTION('',(0.0,0.0,1.0));
#275=DIRECTION('',(1.0,0.0,0.0));
#276= (NAMED_UNIT(#163)LENGTH_UNIT()SI_UNIT(.MILLI.,.METRE.));
#277=DRAUGHTING_PRE_DEFINED_CURVE_FONT('continuous');
#278=COLOUR_RGB('',0.509803950786591,0.509803950786591,0.588235318660736);
#279=CARTESIAN_POINT('',(4.74418947862563E-013,-2.86602540378441,-8.50000000000003));
#280=VECTOR('',#405,1.0);
#281=SURFACE_SIDE_STYLE('',(#406));
#282=EDGE_LOOP('',(#407,#408,#409,#410));
#283=AXIS2_PLACEMENT_3D('',#411,#412,#413);
#284=DRAUGHTING_PRE_DEFINED_CURVE_FONT('continuous');
#285=COLOUR_RGB('',0.509803950786591,0.509803950786591,0.588235318660736);
#286=AXIS2_PLACEMENT_3D('',#414,#415,#416);
#287=DRAUGHTING_PRE_DEFINED_CURVE_FONT('continuous');
#288=COLOUR_RGB('',0.509803950786591,0.509803950786591,0.588235318660736);
#289=AXIS2_PLACEMENT_3D('',#417,#418,#419);
#290=PRE_DEFINED_MARKER('');
#291=COLOUR_RGB('',0.509803950786591,0.509803950786591,0.588235318660736);
#292=DRAUGHTING_PRE_DEFINED_CURVE_FONT('continuous');
#293=COLOUR_RGB('',0.509803950786591,0.509803950786591,0.588235318660736);
#294=CARTESIAN_POINT('',(4.96262458652993E-013,-2.99999999999997,-4.00000000000003));
#295=VECTOR('',#420,1.0);
#296=SURFACE_SIDE_STYLE('',(#421));
#297=EDGE_LOOP('',(#422,#423,#424,#425));
#298=AXIS2_PLACEMENT_3D('',#426,#427,#428);
#299=DRAUGHTING_PRE_DEFINED_CURVE_FONT('continuous');
#300=COLOUR_RGB('',0.509803950786591,0.509803950786591,0.588235318660736);
#301=CARTESIAN_POINT('',(7.87397209730556E-013,-4.78564064605507,5.19999999999997));
#302=VECTOR('',#429,1.0);
#303=PRE_DEFINED_MARKER('');
#304=COLOUR_RGB('',0.509803950786591,0.509803950786591,0.588235318660736);
#305=DRAUGHTING_PRE_DEFINED_CURVE_FONT('continuous');
#306=COLOUR_RGB('',0.509803950786591,0.509803950786591,0.588235318660736);
#307=AXIS2_PLACEMENT_3D('',#430,#431,#432);
#308=PRE_DEFINED_MARKER('');
#309=COLOUR_RGB('',0.509803950786591,0.509803950786591,0.588235318660736);
#310=DRAUGHTING_PRE_DEFINED_CURVE_FONT('continuous');
#311=COLOUR_RGB('',0.509803950786591,0.509803950786591,0.588235318660736);
#312=AXIS2_PLACEMENT_3D('',#433,#434,#435);
#313=DRAUGHTING_PRE_DEFINED_CURVE_FONT('continuous');
#314=COLOUR_RGB('',0.509803950786591,0.509803950786591,0.588235318660736);
#315=AXIS2_PLACEMENT_3D('',#436,#437,#438);
#316=SURFACE_SIDE_STYLE('',(#439));
#317=EDGE_LOOP('',(#440,#441,#442,#443));
#318=AXIS2_PLACEMENT_3D('',#444,#445,#446);
#319=SURFACE_SIDE_STYLE('',(#447));
#320=EDGE_LOOP('',(#448,#449,#450,#451));
#321=AXIS2_PLACEMENT_3D('',#452,#453,#454);
#322=DRAUGHTING_PRE_DEFINED_CURVE_FONT('continuous');
#323=COLOUR_RGB('',0.509803950786591,0.509803950786591,0.588235318660736);
#324=AXIS2_PLACEMENT_3D('',#455,#456,#457);
#325=PRE_DEFINED_MARKER('');
#326=COLOUR_RGB('',0.509803950786591,0.509803950786591,0.588235318660736);
#327=DRAUGHTING_PRE_DEFINED_CURVE_FONT('continuous');
#328=COLOUR_RGB('',0.509803950786591,0.509803950786591,0.588235318660736);
#329=CARTESIAN_POINT('',(-7.73125397451322E-013,4.78564064605513,5.19999999999997));
#330=VECTOR('',#458,1.0);
#331=DRAUGHTING_PRE_DEFINED_CURVE_FONT('continuous');
#332=COLOUR_RGB('',0.509803950786591,0.509803950786591,0.588235318660736);
#333=CARTESIAN_POINT('',(-8.0807501471601E-013,5.00000000000003,2.19999999999997));
#334=VECTOR('',#459,1.0);
#335=DRAUGHTING_PRE_DEFINED_CURVE_FONT('continuous');
#336=COLOUR_RGB('',0.509803950786591,0.509803950786591,0.588235318660736);
#337=AXIS2_PLACEMENT_3D('',#460,#461,#462);
#338=PRE_DEFINED_MARKER('');
#339=COLOUR_RGB('',0.509803950786591,0.509803950786591,0.588235318660736);
#340=DRAUGHTING_PRE_DEFINED_CURVE_FONT('continuous');
#341=COLOUR_RGB('',0.509803950786591,0.509803950786591,0.588235318660736);
#342=CARTESIAN_POINT('',(-4.60147135583329E-013,2.86602540378446,-8.50000000000003));
#343=VECTOR('',#463,1.0);
#344=DRAUGHTING_PRE_DEFINED_CURVE_FONT('continuous');
#345=COLOUR_RGB('',0.509803950786591,0.509803950786591,0.588235318660736);
#346=CARTESIAN_POINT('',(8.22346826995244E-013,-4.99999999999997,2.19999999999997));
#347=VECTOR('',#464,1.0);
#348=PRE_DEFINED_MARKER('');
#349=COLOUR_RGB('',0.509803950786591,0.509803950786591,0.588235318660736);
#350=PRE_DEFINED_MARKER('');
#351=COLOUR_RGB('',0.509803950786591,0.509803950786591,0.588235318660736);
#352=PRE_DEFINED_MARKER('');
#353=COLOUR_RGB('',0.509803950786591,0.509803950786591,0.588235318660736);
#354=DRAUGHTING_PRE_DEFINED_CURVE_FONT('continuous');
#355=COLOUR_RGB('',0.509803950786591,0.509803950786591,0.588235318660736);
#356=AXIS2_PLACEMENT_3D('',#465,#466,#467);
#357=DRAUGHTING_PRE_DEFINED_CURVE_FONT('continuous');
#358=COLOUR_RGB('',0.509803950786591,0.509803950786591,0.588235318660736);
#359=CARTESIAN_POINT('',(-4.81990646373759E-013,3.00000000000003,-4.00000000000003));
#360=VECTOR('',#468,1.0);
#361=DRAUGHTING_PRE_DEFINED_CURVE_FONT('continuous');
#362=COLOUR_RGB('',0.509803950786591,0.509803950786591,0.588235318660736);
#363=AXIS2_PLACEMENT_3D('',#469,#470,#471);
#364=DRAUGHTING_PRE_DEFINED_CURVE_FONT('continuous');
#365=COLOUR_RGB('',0.509803950786591,0.509803950786591,0.588235318660736);
#366=AXIS2_PLACEMENT_3D('',#472,#473,#474);
#367=SURFACE_SIDE_STYLE('',(#475));
#368=PRE_DEFINED_MARKER('');
#369=COLOUR_RGB('',0.509803950786591,0.509803950786591,0.588235318660736);
#370=PRE_DEFINED_MARKER('');
#371=COLOUR_RGB('',0.509803950786591,0.509803950786591,0.588235318660736);
#372=DRAUGHTING_PRE_DEFINED_CURVE_FONT('continuous');
#373=COLOUR_RGB('',0.509803950786591,0.509803950786591,0.588235318660736);
#374=AXIS2_PLACEMENT_3D('',#476,#477,#478);
#375=SURFACE_SIDE_STYLE('',(#479));
#376=EDGE_LOOP('',(#480,#481,#482,#483));
#377=AXIS2_PLACEMENT_3D('',#484,#485,#486);
#378=SURFACE_SIDE_STYLE('',(#487));
#379=EDGE_LOOP('',(#488,#489));
#380=AXIS2_PLACEMENT_3D('',#490,#491,#492);
#381=PRE_DEFINED_MARKER('');
#382=COLOUR_RGB('',0.509803950786591,0.509803950786591,0.588235318660736);
#383=SURFACE_SIDE_STYLE('',(#493));
#384=EDGE_LOOP('',(#494,#495,#496,#497));
#385=AXIS2_PLACEMENT_3D('',#498,#499,#500);
#386=SURFACE_SIDE_STYLE('',(#501));
#387=EDGE_LOOP('',(#502,#503));
#388=EDGE_LOOP('',(#504,#505));
#389=AXIS2_PLACEMENT_3D('',#506,#507,#508);
#390=SURFACE_SIDE_STYLE('',(#509));
#391=EDGE_LOOP('',(#510,#511,#512,#513));
#392=AXIS2_PLACEMENT_3D('',#514,#515,#516);
#393=SURFACE_SIDE_STYLE('',(#517));
#394=EDGE_LOOP('',(#518,#519,#520,#521));
#395=AXIS2_PLACEMENT_3D('',#522,#523,#524);
#396=DRAUGHTING_PRE_DEFINED_CURVE_FONT('continuous');
#397=COLOUR_RGB('',0.509803950786591,0.509803950786591,0.588235318660736);
#398=AXIS2_PLACEMENT_3D('',#525,#526,#527);
#399=PRE_DEFINED_MARKER('');
#400=COLOUR_RGB('',0.509803950786591,0.509803950786591,0.588235318660736);
#401=SURFACE_SIDE_STYLE('',(#528));
#402=EDGE_LOOP('',(#529,#530));
#403=AXIS2_PLACEMENT_3D('',#531,#532,#533);
#405=DIRECTION('',(4.21984224186014E-014,-0.258819045102529,0.965925826289066));
#406=SURFACE_STYLE_FILL_AREA(#534);
#407=ORIENTED_EDGE('',*,*,#82,.F.);
#408=ORIENTED_EDGE('',*,*,#72,.T.);
#409=ORIENTED_EDGE('',*,*,#102,.F.);
#410=ORIENTED_EDGE('',*,*,#120,.F.);
#411=CARTESIAN_POINT('',(7.13590613961699E-015,2.8421709430404E-014,5.19999999999997));
#412=DIRECTION('',(-0.0,-0.0,-1.0));
#413=DIRECTION('',(1.63164644806508E-013,-1.0,0.0));
#414=CARTESIAN_POINT('',(7.13590613961699E-015,2.8421709430404E-014,4.39999999999998));
#415=DIRECTION('',(0.0,0.0,1.0));
#416=DIRECTION('',(1.63164644806508E-013,-1.0,0.0));
#417=CARTESIAN_POINT('',(7.13590613961699E-015,2.8421709430404E-014,5.99999999999997));
#418=DIRECTION('',(0.0,0.0,1.0));
#419=DIRECTION('',(1.63164644806508E-013,-1.0,0.0));
#420=DIRECTION('',(0.0,0.0,1.0));
#421=SURFACE_STYLE_FILL_AREA(#535);
#422=ORIENTED_EDGE('',*,*,#82,.T.);
#423=ORIENTED_EDGE('',*,*,#74,.F.);
#424=ORIENTED_EDGE('',*,*,#102,.T.);
#425=ORIENTED_EDGE('',*,*,#86,.T.);
#426=CARTESIAN_POINT('',(7.13590613961699E-015,2.8421709430404E-014,5.19999999999997));
#427=DIRECTION('',(-0.0,-0.0,-1.0));
#428=DIRECTION('',(1.63164644806508E-013,-1.0,0.0));
#429=DIRECTION('',(-4.21984224186005E-014,0.258819045102524,0.965925826289068));
#430=CARTESIAN_POINT('',(7.13590613961699E-015,2.8421709430404E-014,4.39999999999998));
#431=DIRECTION('',(0.0,0.0,1.0));
#432=DIRECTION('',(1.63164644806508E-013,-1.0,0.0));
#433=CARTESIAN_POINT('',(7.13590613961699E-015,2.8421709430404E-014,-2.8421709430404E-014));
#434=DIRECTION('',(0.0,0.0,1.0));
#435=DIRECTION('',(1.63164644806508E-013,-1.0,0.0));
#436=CARTESIAN_POINT('',(7.13590613961699E-015,2.8421709430404E-014,-8.00000000000003));
#437=DIRECTION('',(0.0,0.0,1.0));
#438=DIRECTION('',(1.63164644806508E-013,-1.0,0.0));
#439=SURFACE_STYLE_FILL_AREA(#536);
#440=ORIENTED_EDGE('',*,*,#68,.F.);
#441=ORIENTED_EDGE('',*,*,#124,.T.);
#442=ORIENTED_EDGE('',*,*,#110,.F.);
#443=ORIENTED_EDGE('',*,*,#106,.F.);
#444=CARTESIAN_POINT('',(7.13590613961699E-015,2.8421709430404E-014,-8.50000000000003));
#445=DIRECTION('',(-0.0,0.0,1.0));
#446=DIRECTION('',(1.63164644806508E-013,-1.0,0.0));
#447=SURFACE_STYLE_FILL_AREA(#537);
#448=ORIENTED_EDGE('',*,*,#78,.T.);
#449=ORIENTED_EDGE('',*,*,#98,.F.);
#450=ORIENTED_EDGE('',*,*,#122,.T.);
#451=ORIENTED_EDGE('',*,*,#92,.T.);
#452=CARTESIAN_POINT('',(7.13590613961699E-015,2.8421709430404E-014,-4.00000000000003));
#453=DIRECTION('',(-0.0,-0.0,-1.0));
#454=DIRECTION('',(1.63164644806508E-013,-1.0,0.0));
#455=CARTESIAN_POINT('',(7.13590613961699E-015,2.8421709430404E-014,-2.8421709430404E-014));
#456=DIRECTION('',(0.0,0.0,1.0));
#457=DIRECTION('',(1.63164644806508E-013,-1.0,0.0));
#458=DIRECTION('',(-4.21984224186005E-014,0.258819045102524,-0.965925826289068));
#459=DIRECTION('',(-0.0,-0.0,-1.0));
#460=CARTESIAN_POINT('',(7.13590613961699E-015,2.8421709430404E-014,-8.00000000000003));
#461=DIRECTION('',(0.0,0.0,1.0));
#462=DIRECTION('',(1.63164644806508E-013,-1.0,0.0));
#463=DIRECTION('',(4.21984224186014E-014,-0.258819045102529,-0.965925826289066));
#464=DIRECTION('',(0.0,0.0,1.0));
#465=CARTESIAN_POINT('',(7.13590613961699E-015,2.8421709430404E-014,5.99999999999997));
#466=DIRECTION('',(0.0,0.0,1.0));
#467=DIRECTION('',(1.63164644806508E-013,-1.0,0.0));
#468=DIRECTION('',(-0.0,-0.0,-1.0));
#469=CARTESIAN_POINT('',(7.13590613961699E-015,2.8421709430404E-014,-9.00000000000003));
#470=DIRECTION('',(0.0,0.0,1.0));
#471=DIRECTION('',(1.63164644806508E-013,-1.0,0.0));
#472=CARTESIAN_POINT('',(7.13590613961699E-015,2.8421709430404E-014,-2.8421709430404E-014));
#473=DIRECTION('',(0.0,0.0,1.0));
#474=DIRECTION('',(1.63164644806508E-013,-1.0,0.0));
#475=SURFACE_STYLE_FILL_AREA(#538);
#476=CARTESIAN_POINT('',(7.13590613961699E-015,2.8421709430404E-014,-9.00000000000003));
#477=DIRECTION('',(0.0,0.0,1.0));
#478=DIRECTION('',(1.63164644806508E-013,-1.0,0.0));
#479=SURFACE_STYLE_FILL_AREA(#539);
#480=ORIENTED_EDGE('',*,*,#78,.F.);
#481=ORIENTED_EDGE('',*,*,#106,.T.);
#482=ORIENTED_EDGE('',*,*,#122,.F.);
#483=ORIENTED_EDGE('',*,*,#90,.F.);
#484=CARTESIAN_POINT('',(7.13590613961699E-015,2.8421709430404E-014,-4.00000000000003));
#485=DIRECTION('',(-0.0,-0.0,-1.0));
#486=DIRECTION('',(1.63164644806508E-013,-1.0,0.0));
#487=SURFACE_STYLE_FILL_AREA(#540);
#488=ORIENTED_EDGE('',*,*,#124,.F.);
#489=ORIENTED_EDGE('',*,*,#134,.F.);
#490=CARTESIAN_POINT('',(6.88497963127341E-015,-1.36602540378441,-9.00000000000003));
#491=DIRECTION('',(0.0,0.0,-1.0));
#492=DIRECTION('',(1.83690953073357E-016,1.0,0.0));
#493=SURFACE_STYLE_FILL_AREA(#541);
#494=ORIENTED_EDGE('',*,*,#112,.F.);
#495=ORIENTED_EDGE('',*,*,#150,.T.);
#496=ORIENTED_EDGE('',*,*,#104,.F.);
#497=ORIENTED_EDGE('',*,*,#72,.F.);
#498=CARTESIAN_POINT('',(7.13590613961699E-015,2.8421709430404E-014,2.19999999999997));
#499=DIRECTION('',(-0.0,-0.0,-1.0));
#500=DIRECTION('',(1.63164644806508E-013,-1.0,0.0));
#501=SURFACE_STYLE_FILL_AREA(#542);
#502=ORIENTED_EDGE('',*,*,#150,.F.);
#503=ORIENTED_EDGE('',*,*,#126,.F.);
#504=ORIENTED_EDGE('',*,*,#90,.T.);
#505=ORIENTED_EDGE('',*,*,#98,.T.);
#506=CARTESIAN_POINT('',(6.95221518654363E-015,-3.99999999999997,-2.8421709430404E-014));
#507=DIRECTION('',(0.0,0.0,-1.0));
#508=DIRECTION('',(1.83690953073357E-016,1.0,0.0));
#509=SURFACE_STYLE_FILL_AREA(#543);
#510=ORIENTED_EDGE('',*,*,#112,.T.);
#511=ORIENTED_EDGE('',*,*,#86,.F.);
#512=ORIENTED_EDGE('',*,*,#104,.T.);
#513=ORIENTED_EDGE('',*,*,#126,.T.);
#514=CARTESIAN_POINT('',(7.13590613961699E-015,2.8421709430404E-014,2.19999999999997));
#515=DIRECTION('',(-0.0,-0.0,-1.0));
#516=DIRECTION('',(1.63164644806508E-013,-1.0,0.0));
#517=SURFACE_STYLE_FILL_AREA(#544);
#518=ORIENTED_EDGE('',*,*,#68,.T.);
#519=ORIENTED_EDGE('',*,*,#92,.F.);
#520=ORIENTED_EDGE('',*,*,#110,.T.);
#521=ORIENTED_EDGE('',*,*,#134,.T.);
#522=CARTESIAN_POINT('',(7.13590613961699E-015,2.8421709430404E-014,-8.50000000000003));
#523=DIRECTION('',(-0.0,0.0,1.0));
#524=DIRECTION('',(1.63164644806508E-013,-1.0,0.0));
#525=CARTESIAN_POINT('',(7.13590613961699E-015,2.8421709430404E-014,-2.8421709430404E-014));
#526=DIRECTION('',(0.0,0.0,1.0));
#527=DIRECTION('',(1.63164644806508E-013,-1.0,0.0));
#528=SURFACE_STYLE_FILL_AREA(#545);
#529=ORIENTED_EDGE('',*,*,#120,.T.);
#530=ORIENTED_EDGE('',*,*,#74,.T.);
#531=CARTESIAN_POINT('',(7.63450939632671E-015,-2.28564064605507,5.99999999999997));
#532=DIRECTION('',(0.0,0.0,1.0));
#533=DIRECTION('',(-1.83690953073357E-016,-1.0,0.0));
#534=FILL_AREA_STYLE('',(#546));
#535=FILL_AREA_STYLE('',(#547));
#536=FILL_AREA_STYLE('',(#548));
#537=FILL_AREA_STYLE('',(#549));
#538=FILL_AREA_STYLE('',(#550));
#539=FILL_AREA_STYLE('',(#551));
#540=FILL_AREA_STYLE('',(#552));
#541=FILL_AREA_STYLE('',(#553));
#542=FILL_AREA_STYLE('',(#554));
#543=FILL_AREA_STYLE('',(#555));
#544=FILL_AREA_STYLE('',(#556));
#545=FILL_AREA_STYLE('',(#557));
#546=FILL_AREA_STYLE_COLOUR('',#558);
#547=FILL_AREA_STYLE_COLOUR('',#559);
#548=FILL_AREA_STYLE_COLOUR('',#560);
#549=FILL_AREA_STYLE_COLOUR('',#561);
#550=FILL_AREA_STYLE_COLOUR('',#562);
#551=FILL_AREA_STYLE_COLOUR('',#563);
#552=FILL_AREA_STYLE_COLOUR('',#564);
#553=FILL_AREA_STYLE_COLOUR('',#565);
#554=FILL_AREA_STYLE_COLOUR('',#566);
#555=FILL_AREA_STYLE_COLOUR('',#567);
#556=FILL_AREA_STYLE_COLOUR('',#568);
#557=FILL_AREA_STYLE_COLOUR('',#569);
#558=COLOUR_RGB('',0.509803950786591,0.509803950786591,0.588235318660736);
#559=COLOUR_RGB('',0.509803950786591,0.509803950786591,0.588235318660736);
#560=COLOUR_RGB('',0.509803950786591,0.509803950786591,0.588235318660736);
#561=COLOUR_RGB('',0.509803950786591,0.509803950786591,0.588235318660736);
#562=COLOUR_RGB('',0.509803950786591,0.509803950786591,0.588235318660736);
#563=COLOUR_RGB('',0.509803950786591,0.509803950786591,0.588235318660736);
#564=COLOUR_RGB('',0.509803950786591,0.509803950786591,0.588235318660736);
#565=COLOUR_RGB('',0.509803950786591,0.509803950786591,0.588235318660736);
#566=COLOUR_RGB('',0.509803950786591,0.509803950786591,0.588235318660736);
#567=COLOUR_RGB('',0.509803950786591,0.509803950786591,0.588235318660736);
#568=COLOUR_RGB('',0.509803950786591,0.509803950786591,0.588235318660736);
#569=COLOUR_RGB('',0.509803950786591,0.509803950786591,0.588235318660736);
ENDSEC;
END-ISO-10303-21;
